Зробити стартовою  |  Додати в вибране
 
Пошук по сайту:  
  логін: пароль:  
    Реєстрація на сайті   Нагадати пароль?    

Видавництво Симфонія | Книжкова фабрика

akords.org » A » Avril Lavigne » I Dont Give Live
Знайти необхідні акорди

Avril Lavigne - I Dont Give Live  табулатура

Avril Lavigne : I Don't Give   (Live at Buffalo NY, My World DVD)

Typed by Riki! www.igiavril.tk
Any comments to: avrildown@yahoo.com


Standard E tuning

Intro riff
e|----------------------------------------------------------|
B|----------------------------------------------------------|
G|-10/12--10--8-------8h10------10/12--10--8--------7b8r7---|
D|---------------10~~-------------------------10~~--------8~|
A|----------------------------------------------------------|
E|----------------------------------------------------------|


e|----------------------------------------------------------|
B|----------------------------------------------------------|
G|-10/12--10--8-------8h10--10b12-10b12------7-8-7----------|
D|---------------10~~--------------------10~~------8-8/10---|
A|----------------------------------------------------------|
E|----------------------------------------------------------|


VERSE :
Ab Bb C
e|----------------|
B|----------------|
G|-------------5--|
D|---6----8----5--|
A|---6----8----3--|
E|---4----6-------|


Ab Bb C
Everytime you go away, it actually kinda makes my day
Ab Bb C
Everytime you leave, you slam the door
Ab Bb C
You pick your words so carefully, you hate to think you're hurting me
Ab Bb
You leave me laughing on the floor


CHORUS:
D# Ab Bb C
e|----------------------|
B|----------------------|
G|---10--------------5--|
D|---10----6----8----5--|
A|---8-----6----8----3--|
E|---------4----6-------|

D#
Cause I don't give it up, I don't give a damn
Ab Bb
What you say about that
D#
You know I don't give it up, I don't give a damn
Ab Bb
What you say about that
C
You know I'm not gonna cry, about some stupid guy
Ab Bb
A guy who thinks he's all that

e|----------------------------------------------------------|
B|----------------------------------------------------------|
G|-10/12--10--8-------8h10--10b12-10b12------7-8-7----------|
D|---------------10~~--------------------10~~------8-8/10---|
A|----------------------------------------------------------|
E|----------------------------------------------------------|

VERSE: (same as before)

I thought we were just hanging out, so why'd you kiss me on the mouth
You thought the way you taste would get me high
You went to all your friends to brag, guys are always such a drag
Don't you know the reason that I kissed you was to say goodbye

CHORUS:

D#
Cause I don't give it up, I don't give a damn
Ab Bb
What you say about that
D#
You know I don't give it up, I don't give a damn
Ab Bb
What you say about that
C
You know I'm not gonna cry, about some stupid guy
Ab Bb
A guy who thinks he's all that

BRIDGE:

Ab Bb C
Hanging hanging out, I am simply
Ab Bb C
Hanging hanging out, I am simply
Ab Bb C
Hanging so why'd you kiss me on the mouth?

Gb F
Don't you know that I...


CHORUS...

-----------------------------
|  акорди, навчання, відео  |
|     http://akords.org     |
-----------------------------

 (голосів: 0)
   Інші пісні:
  • I Dont Give
  • All I Have To Give 6
  • Give It Up
  • All I Have To Give 4
  • Cant Buy Me Love 2
  •  
    Шановний відвідувач, Ви зайшли на сайт як незареєстрований користувач. Ми рекомендуємо Вам реєструватися або зайти на сайт під своїм ім'ям.

    Додавання коментаря

    Ім'я:*
    E-Mail:*
    Коментар:
    Введіть два слова, показані на зображенні: *
     
      

    BLIBL-створити сайт безкоштовно