Зробити стартовою  |  Додати в вибране
 
Пошук по сайту:  
  логін: пароль:  
    Реєстрація на сайті   Нагадати пароль?    

Видавництво Симфонія | Книжкова фабрика

akords.org » A » Avril Lavigne » How Does It Feel
Знайти необхідні акорди

Avril Lavigne - How Does It Feel  табулатура

The other tab was pretty good but incomplete, so i made one of the whole song. 


VERSE
guitar 1 (acoustic)
I'm not afraid of anything...
e|----------------------------------------|
B|----------------------------------------|
G|----------------------------------------|
D|--7-7-7-7--7-7-7--10-10-10-9--9--9--10--| x3
A|--7-7-7-7--7-7-7--10-10-10-10-10-10-10--|
E|--5-5-5-5--5-5-5---8--8--8--8--8--8--8--|
pm.......................................

but suddenly, suddenly
e|----------------------------------------|
B|----------------------------------------|
G|--10-10-10-10--10-10-10-10-10-10-10-10--|
D|--10-10-10-10--10-10-10-10-10-10-10-10--|
A|---8--8--8--8---8--8--8--8--8--8--8--8--|
E|----------------------------------------|
pm.......................................

I am small and the world is big...
e|----------------------------------------|
B|----------------------------------------|
G|----------------------------------------|
D|--7-7-7-7--7-7-7--10-10-10-9--9--9--10--| x3
A|--7-7-7-7--7-7-7--10-10-10-10-10-10-10--|
E|--5-5-5-5--5-5-5---8--8--8--8--8--8--8--|
pm.......................................

suddenly, suddenly
e|----------------------------------------|
B|----------------------------------------|
G|--10-10-10-10--10-10-10-10-10-10-10-10--|
D|--10-10-10-10--10-10-10-10-10-10-10-10--|
A|---8--8--8--8---8--8--8--8--8--8--8--8--|
E|----------------------------------------|
pm.......................................


CHORUS
__
guitar 1 (acoustic)
how does it feel to be
e|--------------------------------| |
B|--------------------------------| |
G|--5-5-5-5-5-5-5-----------------| |
D|--5-5-5-5-5-5-5--5-5-5-5-5-5-5--| |
A|--3-3-3-3-3-3-3--5-5-5-5-5-5-5--| |
E|-----------------3-3-3-3-3-3-3--| |
pm................................ |
|
different from me, are we the same, | x2
how does it feel |
e|--------------------------------| |
B|--------------------------------| |
G|--------------------------------| |
D|--3-3-3-3-3-3-3--3-3-3-3-3-3-3--| |
A|--3-3-3-3-3-3-3--3-3-3-3-3-3-3--| |
E|--1-1-1-1-1-1-1--1-1-1-1-1-1-1--| |
pm................................ |
/
__/

POST-CHORUS

guitar 1
e|----------------------------------------|
B|----------------------------------------|
G|----------------------------------------|
D|--7-7-7-7--7-7-7--10-10-10-9--9--9--10--|
A|--7-7-7-7--7-7-7--10-10-10-10-10-10-10--|
E|--5-5-5-5--5-5-5---8--8--8--8--8--8--8--|
pm........................................


guitar 2 (electric - clean)
e|-----8--10---------8--10-----|
B|------------8--------------8-|
G|-----------------------------|
D|-----------------------------| x2
A|-----------------------------|
E|-----------------------------|

VERSE
guitar 1 (acoustic)
I am young and I am free...
e|----------------------------------------|
B|----------------------------------------|
G|----------------------------------------|
D|--7-7-7-7--7-7-7--10-10-10-9--9--9--10--| x3
A|--7-7-7-7--7-7-7--10-10-10-10-10-10-10--|
E|--5-5-5-5--5-5-5---8--8--8--8--8--8--8--|
pm.......................................

guitar 2
e|-----8--10---------8--10-----|
B|------------8--------------8-|
G|-----------------------------|
D|-----------------------------|
A|-----------------------------|
E|-----------------------------|

but suddenly, suddenly
guitar 1
e|----------------------------------------|
B|----------------------------------------|
G|--10-10-10-10--10-10-10-10-10-10-10-10--|
D|--10-10-10-10--10-10-10-10-10-10-10-10--|
A|---8--8--8--8---8--8--8--8--8--8--8--8--|
E|----------------------------------------|
pm.......................................

guitar 2
e|----------------------------|
B|----------------------------|
G|---14--12-------------------|
D|----------14---12/1412-----|
A|----------------------------|
E|----------------------------|

CHORUS

how does it feel to be
guitar 1
e|--------------------------------|
B|--------------------------------|
G|--5-5-5-5-5-5-5-----------------|
D|--5-5-5-5-5-5-5--5-5-5-5-5-5-5--|
A|--3-3-3-3-3-3-3--5-5-5-5-5-5-5--|
E|-----------------3-3-3-3-3-3-3--|
pm...............................

guitar 2
e|--------------------------------|
B|--------5---------------3-------|
G|-----5-----5---------4-----4----|
D|--5---------------5-------------|
A|--------------------------------|
E|--------------------------------|


different from me, are we the same how does it feel
guitar 1
e|--------------------------------|
B|--------------------------------|
G|--------------------------------|
D|--3-3-3-3-3-3-3--5-5-5-5-5-5-5--|
A|--3-3-3-3-3-3-3--5-5-5-5-5-5-5--|
E|--1-1-1-1-1-1-1--3-3-3-3-3-3-3--|
pm................................

guitar 2
e|--------1--------------3-------|
B|-----1----1---------3-----3----|
G|--2--------------4-------------|
D|-------------------------------|
A|-------------------------------|
E|-------------------------------|

to be
guitar 1
e|--------------------------------|
B|--------------------------------|
G|--5-5-5-5-5-5-5-----------------|
D|--5-5-5-5-5-5-5--5-5-5-5-5-5-5--|
A|--3-3-3-3-3-3-3--5-5-5-5-5-5-5--|
E|-----------------3-3-3-3-3-3-3--|
pm...............................

guitar 2
e|--------------------------------|
B|--------5---------------3-------|
G|-----5-----5---------4-----4----|
D|--5---------------5-------------|
A|--------------------------------|
E|--------------------------------|

different from me, are we the same how does it feel
guitar 1
e|--------------------------------|
B|--------------------------------|
G|--------------------------------|
D|--3-3-3-3-3-3-3--5-5-5-5-5-5-5--|
A|--3-3-3-3-3-3-3--5-5-5-5-5-5-5--|
E|--1-1-1-1-1-1-1--3-3-3-3-3-3-3--|
pm................................

guitar 2
e|--------1--------------3-------|
B|-----1----1---------3-----3----|
G|--2--------------4-------------|
D|-------------------------------|
A|-------------------------------|
E|-------------------------------|

BRIDGE
guitar 3 (distortion)
e|------------------------------------------------|
B|------------------------------------------------|
G|------------------------------------------------|
D|--7-7-7-7-7-7-7-7-7-7-7-7-7-7-7-7-7-7-7-7-7-7---|
A|--7-7-7-7-7-7-7-7-7-7-7-7-7-7-7-7-7-7-7-7-7-7---|
E|--5-5-5-5-5-5-5-5-5-5-5-5-5-5-5-5-5-5-5-5-5-5---|

would you comfort me
e|-----0-----------0------3-----3-------3-2-------|
B|----1-----------1---------3-----3---3-----3-----|
G|---2-----------0------------0-----0---------2---|
D|--2-----------2---------------------------------|
A|-------0-----------3----------------------------|
E|------------------------------------------------|

would you cry with me
e|-----0-----------0------3-----3-------3-2-------|
B|----1-----------1---------3-----3---3-----3-----|
G|---2-----------0------------0-----0---------2---|
D|--2-----------2---------------------------------|
A|-------0-----------3----------------------------|
E|------------------------------------------------|

Ah ah ah ah...
guitar 2
e|--10-10--------10---------10--------------------|
B|--------10-8-------8-10------8-10---8-8-8h10-7--|
G|------------------------------------------------|
D|------------------------------------------------|
A|------------------------------------------------|
E|------------------------------------------------|

guitar 3
e|-----0-----------0------3-----3-------3-2-------|
B|----1-----------1---------3-----3---3-----3-----|
G|---2-----------0------------0-----0---------2---|
D|--2-----------2---------------------------------|
A|-------0-----------3----------------------------|
E|------------------------------------------------|

Ah ah ah ah...
guitar 2
e|--10-10--------10---------10--------------------|
B|--------10-8-------8-10------8-10---8-8-8h10h---|
G|------------------------------------------------|
D|------------------------------------------------|
A|------------------------------------------------|
E|------------------------------------------------|

guitar 3
e|-----0-----------0------3-----3-------3-2-------|
B|----1-----------1---------3-----3---3-----3-----|
G|---2-----------0------------0-----0---------2---|
D|--2-----------2---------------------------------|
A|-------0-----------3----------------------------|
E|------------------------------------------------|

I am small and the world is big
guitar 2
e|-------------------------|
B|-------------------------|
G|-------------------------|
D|-----7---------10--------|
A|----7---------10---------|
E|---5---------8-----------|

but i'm not afraid of anything
guitar 2
e|-------------------------|
B|-------------------------|
G|-------------------------|
D|-----7---------10--------|
A|----7---------10---------|
E|---5---------8-----------|


CHORUS
how does it feel to be
guitar 1
e|--------------------------------|
B|--------------------------------|
G|--5-5-5-5-5-5-5-----------------|
D|--5-5-5-5-5-5-5--5-5-5-5-5-5-5--|
A|--3-3-3-3-3-3-3--5-5-5-5-5-5-5--|
E|-----------------3-3-3-3-3-3-3--|
pm...............................

guitar 2
e|--------------------------------|
B|--------5---------------3-------|
G|-----5-----5---------4-----4----|
D|--5---------------5-------------|
A|--------------------------------|
E|--------------------------------|

guitar 3
e|--3h-------------3h-------------|
B|--5h-------------3h-------------|
G|--5h-------------4h-------------|
D|--5h-------------5h-------------|
A|--3h-------------5h-------------|
E|-----------------3h-------------|

different from me, are we the same how does it feel
guitar 1
e|--------------------------------|
B|--------------------------------|
G|--------------------------------|
D|--3-3-3-3-3-3-3--5-5-5-5-5-5-5--|
A|--3-3-3-3-3-3-3--5-5-5-5-5-5-5--|
E|--1-1-1-1-1-1-1--3-3-3-3-3-3-3--|
pm................................

guitar 2
e|--------1--------------3-------|
B|-----1----1---------3-----3----|
G|--2--------------4-------------|
D|-------------------------------|
A|-------------------------------|
E|-------------------------------|

guitar 3
e|--1h------------3h-------------|
B|--1h------------3h-------------|
G|--2h------------4h-------------|
D|--3h------------5h-------------|
A|--3h------------5h-------------|
E|--1h------------3h-------------|

to be
guitar 1
e|--------------------------------|
B|--------------------------------|
G|--5-5-5-5-5-5-5-----------------|
D|--5-5-5-5-5-5-5--5-5-5-5-5-5-5--|
A|--3-3-3-3-3-3-3--5-5-5-5-5-5-5--|
E|-----------------3-3-3-3-3-3-3--|
pm...............................

guitar 2
e|--------------------------------|
B|--------5---------------3-------|
G|-----5-----5---------4-----4----|
D|--5---------------5-------------|
A|--------------------------------|
E|--------------------------------|

guitar 3
e|--3h-------------3h-------------|
B|--5h-------------3h-------------|
G|--5h-------------4h-------------|
D|--5h-------------5h-------------|
A|--3h-------------5h-------------|
E|-----------------3h-------------|


different from me, are we the same how does it feel
guitar 1
e|--------------------------------|
B|--------------------------------|
G|--------------------------------|
D|--3-3-3-3-3-3-3--5-5-5-5-5-5-5--|
A|--3-3-3-3-3-3-3--5-5-5-5-5-5-5--|
E|--1-1-1-1-1-1-1--3-3-3-3-3-3-3--|
pm................................

guitar 2
e|--------1--------------3-------|
B|-----1----1---------3-----3----|
G|--2--------------4-------------|
D|-------------------------------|
A|-------------------------------|
E|-------------------------------|

guitar 3
e|--1h------------3h-------------|
B|--1h------------3h-------------|
G|--2h------------4h-------------|
D|--3h------------5h-------------|
A|--3h------------5h-------------|
E|--1h------------3h-------------|

repeat chorus a few times and end on F

have fun!

-----------------------------
|  акорди, навчання, відео  |
|     http://akords.org     |
-----------------------------

 (голосів: 1)
   Інші пісні:
  • Spoilin For A Fight
  • Aint No Fun
  • Complicated
  • War Pigs
  • Taxman
  •  
    Шановний відвідувач, Ви зайшли на сайт як незареєстрований користувач. Ми рекомендуємо Вам реєструватися або зайти на сайт під своїм ім'ям.

    Додавання коментаря

    Ім'я:*
    E-Mail:*
    Коментар:
    Введіть два слова, показані на зображенні: *
     
      

    BLIBL-створити сайт безкоштовно