Зробити стартовою  |  Додати в вибране
 
Пошук по сайту:  
  логін: пароль:  
    Реєстрація на сайті   Нагадати пароль?    

Видавництво Симфонія | Книжкова фабрика

akords.org » A » Avril Lavigne » Freak Out
Знайти необхідні акорди

Avril Lavigne - Freak Out   табулатура

hey this is my first tab and i think this is tab is perefect but i doubt it lol
If your wondering this doesn't sound like the original its because its not its the live
so if you wana listen go to this

anyway i wouldn't say this tab is too hard to be honest its quite easy

so the intro is quite simple but you'll have to listen to the intro to get the pattern
cause its hard to demonstrate on here

INTRO

LEAD GUITAR PM this chord in a repeated pattern
E--------|
B--------|
G--7-----|
D--7-----|
A--5-----|
D--------|

towards the end of that pattern its the same chord
LEAD PM
E----------------|
B----------------|
G--7-7--7~--7~---|
D--7-7--7~--7~---|
A--5-5--5~--0----|
D----------------|

LEAD
Use your palm now and again and rest it on the strings slightly towards the bridge
1st part
E---------------------------|
B---------------------------|
G----7-7-7h9p7--------------|
D----0-0-0let it ring-------| x3
A---------------------------|
D---------------------------|

2nd part 1st bit 2nd bit
E------------------------- -------------------------|
B------------------------- -------------------------|
G----7-7-9h11p9/7---7-7--- ------7-7-11h12p11-------|
D----0-0-let it ring------ ------0-0----------------|
A------------------------- -------------------------|
D------------------------- -------------------------|

{repeat the 1st part and then the 2nd part 1st bit}

RHYTHEM GUITAR (Backing while lead is playing)

Using palm to stop now and again
E----------------------------------|
B----------------------------------|
G----------------------------------| x2 for the INTRO
D---0-0---2-2-/5-5----55-5-55-5--0-| x4 for the VERSE
A---0-0---2-2-/5-5-PM-55-5-55-5--0-|
D---0-0---2-2-/5-5----55-5-55-5--0-|


PRE-CHORUS
x7 x4 x5
E----------------------------------|
B----------------------------------|
G----------------------------------|
D----2222222/4444/55555------------|
A----2222222/4444/55555------------|
D----2222222/4444/55555------------|


CHROUS
strum x8 then x8
E-------------------------------------------|
B-------------------------------------------|
G---7777777777777777---44444/777------------| x2
D---7777777777777777---44444/777-55555555---|
A---5555555/44444444---22222/555-55555555---|
D--------------------------------55555555---|

INTRO

VERSE

PRE-CHORUS

CHORUS

MIDDLE 8

E-------------------------------------|
B-----3------2-------------3----------|
G----2-2----2-2------4----2-2---------|
D---0---0-----------4-4--0------------|
A----------4-------2------------------|
D-------------------------------------|

x10 let it ring x6 x5
E---------------------------------------|
B---------------------------------------|
G---------------------------------------| Palm Muted
D----2222222/4--------/555555/77777-----|
A----2222222/4--------/555555/77777-----|
D----2222222/4--------/555555/77777-----|


E---15p14----------|
B---------15-------|
G------------14----| x 8
D------------------|
A------------------|
D------------------|

CHORUS x 2

-----------------------------
|  акорди, навчання, відео  |
|     http://akords.org     |
-----------------------------

 (голосів: 0)
   Інші пісні:
  • What Went Wrong Acoustic
  • You Fucked Up My Life
  • You Fucked Up My Life
  • Family Reunion
  • First Date
  •  
    Шановний відвідувач, Ви зайшли на сайт як незареєстрований користувач. Ми рекомендуємо Вам реєструватися або зайти на сайт під своїм ім'ям.

    Додавання коментаря

    Ім'я:*
    E-Mail:*
    Коментар:
    Введіть два слова, показані на зображенні: *
     
      

    BLIBL-створити сайт безкоштовно