Зробити стартовою  |  Додати в вибране
 
Пошук по сайту:  
  логін: пароль:  
    Реєстрація на сайті   Нагадати пароль?    

Видавництво Симфонія | Книжкова фабрика

akords.org » A » Avril Lavigne » Contagious
Знайти необхідні акорди

Avril Lavigne - Contagious  табулатура

-----------------------------------------------------
| AVRIL LAVIGNE - CONTAGIOUS |
-----------------------------------------------------

Tabbed by shaq147

Standard tuning.

GUITAR 1 - Lead guitar, with slight distortion
GUITAR 2 - Rythmn guitar, with distortion

[NOTE: (E=4/1) refers to 4 notes per second. (E=2/1) refers to 2 notes per second)]

(E=4/1) Played during VERSE and PRE-CHORUS
(E=2/1) Played during BRIDGE and CHORUS

Figure out where the downstrokes and upstrokes are at yourself since it cannot be tabbed.
Especially at the BRIDGE for GUITAR 1

___________________________________________________________________________________


[GUITAR 1] - Lead guitar (Slight distortion)


VERSE 1 (E=4/1)

Ah ah

E E E E E E E E E E E E E E E E
e|------------------------------------------------------------|
B|------------------------------------------------------------|
G|-------10-------------11-------------10-------------10------|
D|---11------11-----11------11-----11------11-----11------11--|
A|8--------------9--------------------------------------------|
E|------------------------------9--------------9--------------|

Ah ah

E E E E E E E E E E E E E E E E
e|------------------------------------------------------------|
B|------------------------------------------------------------|
G|-------10-------------11-------------10-------------10------|
D|---11------11-----11------11-----11------11-----11------11--|
A|8--------------9--------------------------------------------|
E|------------------------------9--------------9--------------|

When you're around I don't know what to do

E E E E E E E E E E E E E E E E
|------------------------------------------------------------|
|------------------------------------------------------------|
|-------10-------------11-------------10-------------10------|
|---11------11-----11------11-----11------11-----11------11--|
|8--------------9--------------------------------------------|
|------------------------------9--------------9--------------|

I do not think that I can wai - ai - ait

E E E E E E E E E E E E E E E E
|------------------------------------------------------------|
|------------------------------------------------------------|
|-------10-------------11-------------10-------------10------|
|---11------11-----11------11-----11------11-----11------11--|
|8--------------9--------------------------------------------|
|------------------------------9--------------9--------------|

To go over and to talk to you

E E E E E E E E E E E E E E E E
|------------------------------------------------------------|
|------------------------------------------------------------|
|-------10-------------11-------------10-------------10------|
|---11------11-----11------11-----11------11-----11------11--|
|8--------------9--------------------------------------------|
|------------------------------9--------------9--------------|

I do not know what I should say, and I

E E E E E E E E E E E E E E E E
|------------------------------------------------------------|
|------------------------------------------------------------|
|-------10-------------11-------------10-------------10------|
|---11------11-----11------11-----11------11-----11------11--|
|8--------------9--------------------------------------------|
|------------------------------9--------------9--------------|


PRE-CHORUS (E=4/1)

walked out in silence. That's when I start to realize.

W W W W
|----------------------------------------------------------|
|-------------------------------9-~~~~--------------4~~~~--|
|10~~~~---------11~~~~----------10~~~~--------------5~~~~--|
|10~~~~---------11~~~~----------11~~~~--------------6~~~~--|
|8-~~~~---------9-~~~~----------11~~~~--------------6~~~~--|
|8-~~~~---------9-~~~~----------9-~~~~--------------4~~~~--|

What you bring, to my life. Damn this guy can make me cry e - aye -e- aye

W W W E E E E E E
|----------------------------------------------------------------------------------|
|----------------------------------------------------------------------------------|
|---------10~~~~-------11~~~~----10~~~~--------------------------------------------|
|---------10~~~~-------11~~~~----11~~~~-------------------\6--6--6--6--6--6-//\-|
|---------8-~~~~-------9-~~~~----11~~~~-------------------\6--6--6--6--6--6-//\-|
|---------8-~~~~-------9-~~~~----9-~~~~-------------------\4--4--4--4--4--4-//\-|
* * * * * *

CHORUS (E=2/1)

It's so con- ta - gious. I cannot get it outta my mind

S S S S Q S E S S S Q S S S S S S Q S E S S S Q S S
|--------------------------------------------------------------|
|--------6---6-6------------------------6---6-6----------------|
|--3-3-3-6---6-6--5-5-5-----------3-3-3-6---6-6--5-5-5---------|
|x-4-4-4-6---6-6--6-6-6-8---8-8-x-4-4-4-6---6-6--6-6-6-8---8-8-|
|x-4-4-4-4---4-4--6-6-6-8---8-8-x-4-4-4-4---4-4--6-6-6-8---8-8-|
|x-2-2-2----------4-4-4-6---6-6-x-2-2-2----------4-4-4-6---6-6-|

It's so out- ra - gious. You make me feel so high , all the time.

S S S S Q S E S S S Q S S S S S S Q S E S S S S S S S S S S S S
|------------------------------------------------------------------------------------|------P------|
|--------6---6-6------------------------6---6-6--------------------------------------|------A------|
|--3-3-3-6---6-6--5-5-5-----------3-3-3-6---6-6--10-10-10-10-10-10-10-10-10-10-10-10-|------U------|
|x-4-4-4-6---6-6--6-6-6-8---8-8-x-4-4-4-6---6-6--10-10-10-10-10-10-10-10-10-10-10-10-|------S------|
|x-4-4-4-4---4-4--6-6-6-8---8-8-x-4-4-4-4---4-4--8--8--8--8--8--8--8--8--8--8--8--8--|------E------|
|x-2-2-2----------4-4-4-6---6-6-x-2-2-2----------8--8--8--8--8--8--8--8--8--8--8--8--|------D------|


VERSE 2 (E=4/1)

Ah ah

E E E E E E E E E E E E E E E E
e|------------------------------------------------------------|
B|------------------------------------------------------------|
G|-------10-------------11-------------10-------------10------|
D|---11------11-----11------11-----11------11-----11------11--|
A|8--------------9--------------------------------------------|
E|------------------------------9--------------9--------------|

Ah ah

E E E E E E E E E E E E E E E E
e|------------------------------------------------------------|
B|------------------------------------------------------------|
G|-------10-------------11-------------10-------------10------|
D|---11------11-----11------11-----11------11-----11------11--|
A|8--------------9--------------------------------------------|
E|------------------------------9--------------9--------------|

They all say you're no good for me

E E E E E E E E E E E E E E E E
|------------------------------------------------------------|
|------------------------------------------------------------|
|-------10-------------11-------------10-------------10------|
|---11------11-----11------11-----11------11-----11------11--|
|8--------------9--------------------------------------------|
|------------------------------9--------------9--------------|

But I'm too close to turn ara - ah - ound

E E E E E E E E E E E E E E E E
|------------------------------------------------------------|
|------------------------------------------------------------|
|-------10-------------11-------------10-------------10------|
|---11------11-----11------11-----11------11-----11------11--|
|8--------------9--------------------------------------------|
|------------------------------9--------------9--------------|

I'll show them they don't know anythin'

E E E E E E E E E E E E E E E E
|------------------------------------------------------------|
|------------------------------------------------------------|
|-------10-------------11-------------10-------------10------|
|---11------11-----11------11-----11------11-----11------11--|
|8--------------9--------------------------------------------|
|------------------------------9--------------9--------------|

I think I got you figured out so, I

E E E E E E E E E E E E E E E E
|------------------------------------------------------------|
|------------------------------------------------------------|
|-------10-------------11-------------10-------------10------|
|---11------11-----11------11-----11------11-----11------11--|
|8--------------9--------------------------------------------|
|------------------------------9--------------9--------------|


PRE-CHORUS (E=4/1)

walked out in silence. That's when I start to realize.

W W W W
|----------------------------------------------------------|
|-------------------------------9-~~~~--------------4~~~~--|
|10~~~~---------11~~~~----------10~~~~--------------5~~~~--|
|10~~~~---------11~~~~----------11~~~~--------------6~~~~--|
|8-~~~~---------9-~~~~----------11~~~~--------------6~~~~--|
|8-~~~~---------9-~~~~----------9-~~~~--------------4~~~~--|

What you bring, to my life. Damn this guy can make me smile - eile - eile

W W W E E E E E E
|----------------------------------------------------------------------------------|
|----------------------------------------------------------------------------------|
|---------10~~~~-------11~~~~----10~~~~--------------------------------------------|
|---------10~~~~-------11~~~~----11~~~~-------------------\6--6--6--6--6--6-//\-|
|---------8-~~~~-------9-~~~~----11~~~~-------------------\6--6--6--6--6--6-//\-|
|---------8-~~~~-------9-~~~~----9-~~~~-------------------\4--4--4--4--4--4-//\-|
* * * * * *

CHORUS (E=2/1)

It's so con- ta - gious. I cannot get it outta my mind

S S S S Q S E S S S Q S S S S S S Q S E S S S Q S S
|--------------------------------------------------------------|
|--------6---6-6------------------------6---6-6----------------|
|--3-3-3-6---6-6--5-5-5-----------3-3-3-6---6-6--5-5-5---------|
|x-4-4-4-6---6-6--6-6-6-8---8-8-x-4-4-4-6---6-6--6-6-6-8---8-8-|
|x-4-4-4-4---4-4--6-6-6-8---8-8-x-4-4-4-4---4-4--6-6-6-8---8-8-|
|x-2-2-2----------4-4-4-6---6-6-x-2-2-2----------4-4-4-6---6-6-|

It's so out- ra - gious. You make me feel so high .

S S S S Q S E S S S Q S S S S S S Q S E S S S S S S S S S S S S S S S S
|------------------------------------------------------------------------------------------------|
|--------6---6-6------------------------6---6-6--------------------------------------------------|
|--3-3-3-6---6-6--5-5-5-----------3-3-3-6---6-6--10-10-10-10-10-10-10-10-10-10-10-10-10-10-10-10-|
|x-4-4-4-6---6-6--6-6-6-8---8-8-x-4-4-4-6---6-6--10-10-10-10-10-10-10-10-10-10-10-10-10-10-10-10-|
|x-4-4-4-4---4-4--6-6-6-8---8-8-x-4-4-4-4---4-4--8--8--8--8--8--8--8--8--8--8--8--8--8--8--8--8--|
|x-2-2-2----------4-4-4-6---6-6-x-2-2-2----------8--8--8--8--8--8--8--8--8--8--8--8--8--8--8--8--|


BRIDGE (E=2/1)

I'll give you ev - erything, I'll treat you right

Q E E Q S S S S S Q E E Q S S S S S
|------9----9-------------9-----9-----9-----9----9-------------9--9--9--9--|
|------9----9-------------9-----9-----9-----9----9-------------9--9--9--9--|
|11~~~~11---11---10~~~~10-10-10-10-10-11~~~~11---11---10~~~~10-10-10-10-10-|
|11~~~~11---11---11~~~~11-11-11-11-11-11~~~~11---11---11~~~~11-11-11-11-11-|
|9-~~~~9----9----11~~~~11----11----11-------9----9----11~~~~11-------------|
|9-~~~~9----9----9-~~~~9-----9-----9--------9----9----9-~~~~9--------------|

If you just, give me a chance, I can prove I'm right

Q E E Q S S S S S S S S S S S S S S S S H
|------9----9-------------9-----9---------------------------------------------|
|------9----9-------------9-----9---------------------------------------------|
|11~~~~11---11---10~~~~10-10-10-10-10-10-10-10-10-10-10-10-10-10-10-10-10-//--|
|11~~~~11---11---11~~~~11-11-11-11-11-10-10-10-10-10-10-10-10-10-10-10-10-//--|
|9-~~~~9----9----11~~~~11----11----11-8--8--8--8--8--8--8--8--8--8--8--8--//--|
|9-~~~~9----9----9-~~~~9-----9-----9--8--8--8--8--8--8--8--8--8--8--8--8--//--|


CHORUS (E=2/1)

It's so con- ta - gious. I cannot get it outta my mind

S S S S Q S E S S S Q S S S S S S Q S E S S S Q S S
|--------------------------------------------------------------|
|--------6---6-6------------------------6---6-6----------------|
|--3-3-3-6---6-6--5-5-5-----------3-3-3-6---6-6--5-5-5---------|
|x-4-4-4-6---6-6--6-6-6-8---8-8-x-4-4-4-6---6-6--6-6-6-8---8-8-|
|x-4-4-4-4---4-4--6-6-6-8---8-8-x-4-4-4-4---4-4--6-6-6-8---8-8-|
|x-2-2-2----------4-4-4-6---6-6-x-2-2-2----------4-4-4-6---6-6-|

It's so out- ra - gious. You make me feel so high .

S S S S Q S E S S S Q S S S S S S Q S E S S S S S S S S S S S S S S S S
|------------------------------------------------------------------------------------------------|
|--------6---6-6------------------------6---6-6--------------------------------------------------|
|--3-3-3-6---6-6--5-5-5-----------3-3-3-6---6-6--10-10-10-10-10-10-10-10-10-10-10-10-10-10-10-10-|
|x-4-4-4-6---6-6--6-6-6-8---8-8-x-4-4-4-6---6-6--10-10-10-10-10-10-10-10-10-10-10-10-10-10-10-10-|
|x-4-4-4-4---4-4--6-6-6-8---8-8-x-4-4-4-4---4-4--8--8--8--8--8--8--8--8--8--8--8--8--8--8--8--8--|
|x-2-2-2----------4-4-4-6---6-6-x-2-2-2----------8--8--8--8--8--8--8--8--8--8--8--8--8--8--8--8--|

It's so con- ta - gious. I cannot get it outta my mind

S S S S Q S E S S S Q S S S S S S Q S E S S S Q S S
|--------------------------------------------------------------|
|--------6---6-6------------------------6---6-6----------------|
|--3-3-3-6---6-6--5-5-5-----------3-3-3-6---6-6--5-5-5---------|
|x-4-4-4-6---6-6--6-6-6-8---8-8-x-4-4-4-6---6-6--6-6-6-8---8-8-|
|x-4-4-4-4---4-4--6-6-6-8---8-8-x-4-4-4-4---4-4--6-6-6-8---8-8-|
|x-2-2-2----------4-4-4-6---6-6-x-2-2-2----------4-4-4-6---6-6-|

It's so out- ra - gious. You make me feel so high , all the time.

S S S S Q S E S S S Q S S S S S S Q S E S S S S S S S S S S S
|-------------------------------------------------------------------------------------|---------||
|--------6---6-6------------------------6---6-6---------------------------------------|------E--||
|--3-3-3-6---6-6--5-5-5-----------3-3-3-6---6-6--10-10-10-10-10-10-10-10-10-10-10-10-/|------N--||
|x-4-4-4-6---6-6--6-6-6-8---8-8-x-4-4-4-6---6-6--10-10-10-10-10-10-10-10-10-10-10-10-/|------D--||
|x-4-4-4-4---4-4--6-6-6-8---8-8-x-4-4-4-4---4-4--8--8--8--8--8--8--8--8--8--8--8--8--/|------!--||
|x-2-2-2----------4-4-4-6---6-6-x-2-2-2----------8--8--8--8--8--8--8--8--8--8--8--8--/|---------||


__________________________________________________________________________________


[GUITAR 2] - Rhythmn guitar (With distortion)


VERSE 1 (E=1/4) (STARTS AT 00:06)

Ah, ah. Ah, ah. When you're around I don't know what to do

E E E E E E E E E E E E E E E E E E
e|--------------------|----------------------------------------------------------------|
B|--------------------|----------------------------------------------------------------|
G|--------------------|----------------------------------------------------------------|
D|--------------------|11--11--11--11--11--11--11--11----------------------------------|
A|-----------11--11---|8---8---8---8---9---9---9---9---11--11--11--11--11--11--11--11--|
E|-----------9---9----|--------------------------------9---9---9---9---9---9---9---9---|
* * * * * * * * * * * * * * * * * *

I do not think that I could wait - ai - aite

E E E E E E E E E E E E E E E E
|----------------------------------------------------------------|
|----------------------------------------------------------------|
|----------------------------------------------------------------|
|11--11--11--11--11--11--11--11----------------------------------|
|8---8---8---8---9---9---9---9---11--11--11--11--11--11--11--11--|
|--------------------------------9---9---9---9---9---9---9---9---|
* * * * * * * * * * * * * * * *

To go over and to talk to you

E E E E E E E E E E E E E E E E
|----------------------------------------------------------------|
|----------------------------------------------------------------|
|----------------------------------------------------------------|
|11--11--11--11--11--11--11--11----------------------------------|
|8---8---8---8---9---9---9---9---11--11--11--11--11--11--11--11--|
|--------------------------------9---9---9---9---9---9---9---9---|
* * * * * * * * * * * * * * * *

I do not know what I should say and I

E E E E E E E E E E E E E E E E
|----------------------------------------------------------------|
|----------------------------------------------------------------|
|----------------------------------------------------------------|
|11--11--11--11--11--11--11--11----------------------------------|
|8---8---8---8---9---9---9---9---11--11--11--11--11--11--11--11--|
|--------------------------------9---9---9---9---9---9---9---9---|
* * * * * * * * * * * * * * * *


PRE-CHORUS (E=4/1)

walked out in silence. That's when I start to realize.

W
|----------------------------------------------------------|
|----------------------------------------------------------|
|10~~~~---------------------------------~------------------|
|10~~~~----------------------------------------------------|
|8-~~~~----------------------------------------------------|
|8-~~~~----------------------------------------------------|

What you bring, to my life. Damn this guy can make me cry e - aye -e- aye

W E E E E E E S S S
|------------------------------------------------------------------------------------|
|------------------------------------------------------------------------------------|
|---------10~~~~---------------------------------------------------------------5-5-5-|
|---------10~~~~---------------------------------------------6--6--6--6--6--6--6-6-6-|
|---------8-~~~~---------------------------------------------6--6--6--6--6--6--6-6-6-|
|---------8-~~~~---------------------------------------------4--4--4--4--4--4--4-4-4-|
* * * * * *

CHORUS (E=2/1)

It's so con- ta - gious. I cannot get it outta my mind

S S S S Q S E S S S Q S S S S S S Q S E S S S Q S S
|--------------------------------------------------------------|
|--------6---6-6------------------------6---6-6----------------|
|--3-3-3-6---6-6--5-5-5-----------3-3-3-6---6-6--5-5-5---------|
|x-4-4-4-6---6-6--6-6-6-8---8-8-x-4-4-4-6---6-6--6-6-6-8---8-8-|
|x-4-4-4-4---4-4--6-6-6-8---8-8-x-4-4-4-4---4-4--6-6-6-8---8-8-|
|x-2-2-2----------4-4-4-6---6-6-x-2-2-2----------4-4-4-6---6-6-|

It's so out- ra - gious. You make me feel so high , all the time.

S S S S Q S E S S S Q S S S S S S Q S E S S S S S S S S S S S S
|------------------------------------------------------------------------------------|------P------|
|--------6---6-6------------------------6---6-6--------------------------------------|------A------|
|--3-3-3-6---6-6--5-5-5-----------3-3-3-6---6-6--10-10-10-10-10-10-10-10-10-10-10-10-|------U------|
|x-4-4-4-6---6-6--6-6-6-8---8-8-x-4-4-4-6---6-6--10-10-10-10-10-10-10-10-10-10-10-10-|------S------|
|x-4-4-4-4---4-4--6-6-6-8---8-8-x-4-4-4-4---4-4--8--8--8--8--8--8--8--8--8--8--8--8--|------E------|
|x-2-2-2----------4-4-4-6---6-6-x-2-2-2----------8--8--8--8--8--8--8--8--8--8--8--8--|------D------|


VERSE 2 (E=4/1)

Ah ah

E E E E E E E E E E E E E E E E
|----------------------------------------------------------------|
|----------------------------------------------------------------|
|----------------------------------------------------------------|
|11--11--11--11--11--11--11--11----------------------------------|
|8---8---8---8---9---9---9---9---11--11--11--11--11--11--11--11--|
|--------------------------------9---9---9---9---9---9---9---9---|
* * * * * * * * * * * * * * * *

Ah ah

E E E E E E E E E E E E E E E E
|----------------------------------------------------------------|
|----------------------------------------------------------------|
|----------------------------------------------------------------|
|11--11--11--11--11--11--11--11----------------------------------|
|8---8---8---8---9---9---9---9---11--11--11--11--11--11--11--11--|
|--------------------------------9---9---9---9---9---9---9---9---|
* * * * * * * * * * * * * * * *

They all say that you're no good to me

E E E E E E E E E E E E E E E E
|----------------------------------------------------------------|
|----------------------------------------------------------------|
|----------------------------------------------------------------|
|11--11--11--11--11--11--11--11----------------------------------|
|8---8---8---8---9---9---9---9---11--11--11--11--11--11--11--11--|
|--------------------------------9---9---9---9---9---9---9---9---|
* * * * * * * * * * * * * * * *

But I'm too close to turn ara - ah - ound

E E E E E E E E E E E E E E E E
|----------------------------------------------------------------|
|----------------------------------------------------------------|
|----------------------------------------------------------------|
|11--11--11--11--11--11--11--11----------------------------------|
|8---8---8---8---9---9---9---9---11--11--11--11--11--11--11--11--|
|--------------------------------9---9---9---9---9---9---9---9---|
* * * * * * * * * * * * * * * *

I'll show them they don't know anythin'

E E E E E E E E E E E E E E E E
|----------------------------------------------------------------|
|----------------------------------------------------------------|
|----------------------------------------------------------------|
|11--11--11--11--11--11--11--11----------------------------------|
|8---8---8---8---9---9---9---9---11--11--11--11--11--11--11--11--|
|--------------------------------9---9---9---9---9---9---9---9---|
* * * * * * * * * * * * * * * *

I think I got you figured out so I

E E E E E E E E E E E E E E E E
|----------------------------------------------------------------|
|----------------------------------------------------------------|
|----------------------------------------------------------------|
|11--11--11--11--11--11--11--11----------------------------------|
|8---8---8---8---9---9---9---9---11--11--11--11--11--11--11--11--|
|--------------------------------9---9---9---9---9---9---9---9---|
* * * * * * * * * * * * * * * *


PRE-CHORUS (E=4/1)

walked out in silence. That's when I start to realize.

W
|----------------------------------------------------------|
|----------------------------------------------------------|
|10~~~~---------------------------------~------------------|
|10~~~~----------------------------------------------------|
|8-~~~~----------------------------------------------------|
|8-~~~~----------------------------------------------------|

What you bring, to my life. Damn this guy can make me smile - eile - eile

W E E E E E E S S S
|------------------------------------------------------------------------------------|
|------------------------------------------------------------------------------------|
|---------10~~~~---------------------------------------------------------------5-5-5-|
|---------10~~~~---------------------------------------------6--6--6--6--6--6--6-6-6-|
|---------8-~~~~---------------------------------------------6--6--6--6--6--6--6-6-6-|
|---------8-~~~~---------------------------------------------4--4--4--4--4--4--4-4-4-|
* * * * * *

CHORUS (E=2/1)

It's so con- ta - gious. I cannot get it outta my mind

S S S S Q S E S S S Q S S S S S S Q S E S S S Q S S
|--------------------------------------------------------------|
|--------6---6-6------------------------6---6-6----------------|
|--3-3-3-6---6-6--5-5-5-----------3-3-3-6---6-6--5-5-5---------|
|x-4-4-4-6---6-6--6-6-6-8---8-8-x-4-4-4-6---6-6--6-6-6-8---8-8-|
|x-4-4-4-4---4-4--6-6-6-8---8-8-x-4-4-4-4---4-4--6-6-6-8---8-8-|
|x-2-2-2----------4-4-4-6---6-6-x-2-2-2----------4-4-4-6---6-6-|

It's so out- ra - gious. You make me feel so high .

S S S S Q S E S S S Q S S S S S S Q S E S S S S S S S S S S S S S S S S
|------------------------------------------------------------------------------------------------|
|--------6---6-6------------------------6---6-6--------------------------------------------------|
|--3-3-3-6---6-6--5-5-5-----------3-3-3-6---6-6--10-10-10-10-10-10-10-10-10-10-10-10-10-10-10-10-|
|x-4-4-4-6---6-6--6-6-6-8---8-8-x-4-4-4-6---6-6--10-10-10-10-10-10-10-10-10-10-10-10-10-10-10-10-|
|x-4-4-4-4---4-4--6-6-6-8---8-8-x-4-4-4-4---4-4--8--8--8--8--8--8--8--8--8--8--8--8--8--8--8--8--|
|x-2-2-2----------4-4-4-6---6-6-x-2-2-2----------8--8--8--8--8--8--8--8--8--8--8--8--8--8--8--8--|


BRIDGE (E=2/1)

I'll give you everything, I'll treat you right

H H H H
|-------------------------------------------------|
|-------------------------------------------------|
|11~~~~--------10~~~~------11~~~~---------10~~~~--|
|11~~~~--------11~~~~------11~~~~---------11~~~~--|
|9-~~~~--------11~~~~------9-~~~~---------11~~~~--|
|9-~~~~--------9-~~~~------9-~~~~---------9-~~~~--|

If you just, give me a chance, I can prove I'm right

H H S S S S S S S S S S S H
|---------------------------------------------------------------------|
|---------------------------------------------------------------------|
|11~~~~--------10~~~~---------10-10-10-10-10-10-10-10-10-10-10-10-//--|
|11~~~~--------11~~~~---------10-10-10-10-10-10-10-10-10-10-10-10-//--|
|9-~~~~--------11~~~~---------8--8--8--8--8--8--8--8--8--8--8--8--//--|
|9-~~~~--------9-~~~~---------8--8--8--8--8--8--8--8--8--8--8--8--//--|


CHORUS (E=2/1)

It's so con- ta - gious. I cannot get it outta my mind

S S S S Q S E S S S Q S S S S S S Q S E S S S Q S S
|--------------------------------------------------------------|
|--------6---6-6------------------------6---6-6----------------|
|--3-3-3-6---6-6--5-5-5-----------3-3-3-6---6-6--5-5-5---------|
|x-4-4-4-6---6-6--6-6-6-8---8-8-x-4-4-4-6---6-6--6-6-6-8---8-8-|
|x-4-4-4-4---4-4--6-6-6-8---8-8-x-4-4-4-4---4-4--6-6-6-8---8-8-|
|x-2-2-2----------4-4-4-6---6-6-x-2-2-2----------4-4-4-6---6-6-|

It's so out- ra - gious. You make me feel so high .

S S S S Q S E S S S Q S S S S S S Q S E S S S S S S S S S S S S S S S S
|------------------------------------------------------------------------------------------------|
|--------6---6-6------------------------6---6-6--------------------------------------------------|
|--3-3-3-6---6-6--5-5-5-----------3-3-3-6---6-6--10-10-10-10-10-10-10-10-10-10-10-10-10-10-10-10-|
|x-4-4-4-6---6-6--6-6-6-8---8-8-x-4-4-4-6---6-6--10-10-10-10-10-10-10-10-10-10-10-10-10-10-10-10-|
|x-4-4-4-4---4-4--6-6-6-8---8-8-x-4-4-4-4---4-4--8--8--8--8--8--8--8--8--8--8--8--8--8--8--8--8--|
|x-2-2-2----------4-4-4-6---6-6-x-2-2-2----------8--8--8--8--8--8--8--8--8--8--8--8--8--8--8--8--|

It's so con- ta - gious. I cannot get it outta my mind

S S S S Q S E S S S Q S S S S S S Q S E S S S Q S S
|--------------------------------------------------------------|
|--------6---6-6------------------------6---6-6----------------|
|--3-3-3-6---6-6--5-5-5-----------3-3-3-6---6-6--5-5-5---------|
|x-4-4-4-6---6-6--6-6-6-8---8-8-x-4-4-4-6---6-6--6-6-6-8---8-8-|
|x-4-4-4-4---4-4--6-6-6-8---8-8-x-4-4-4-4---4-4--6-6-6-8---8-8-|
|x-2-2-2----------4-4-4-6---6-6-x-2-2-2----------4-4-4-6---6-6-|

It's so out- ra - gious. You make me feel so high , all the time.

S S S S Q S E S S S Q S S S S S S Q S E S S S S S S S S S S S S
|-------------------------------------------------------------------------------------|---------||
|--------6---6-6------------------------6---6-6---------------------------------------|------E--||
|--3-3-3-6---6-6--5-5-5-----------3-3-3-6---6-6--10-10-10-10-10-10-10-10-10-10-10-10-/|------N--||
|x-4-4-4-6---6-6--6-6-6-8---8-8-x-4-4-4-6---6-6--10-10-10-10-10-10-10-10-10-10-10-10-/|------D--||
|x-4-4-4-4---4-4--6-6-6-8---8-8-x-4-4-4-4---4-4--8--8--8--8--8--8--8--8--8--8--8--8--/|------!--||
|x-2-2-2----------4-4-4-6---6-6-x-2-2-2----------8--8--8--8--8--8--8--8--8--8--8--8--/|---------||

-----------------------------
|  акорди, навчання, відео  |
|     http://akords.org     |
-----------------------------

 (голосів: 1)
   Інші пісні:
  • I Wanna Know Why
  • What Goes On
  • What Goes On
  • How Does It Feel
  • Paranoid
  •  
    Шановний відвідувач, Ви зайшли на сайт як незареєстрований користувач. Ми рекомендуємо Вам реєструватися або зайти на сайт під своїм ім'ям.

    Додавання коментаря

    Ім'я:*
    E-Mail:*
    Коментар:
    Введіть два слова, показані на зображенні: *
     
      

    BLIBL-створити сайт безкоштовно