Зробити стартовою  |  Додати в вибране
 
Пошук по сайту:  
  логін: пароль:  
    Реєстрація на сайті   Нагадати пароль?    

Видавництво Симфонія | Книжкова фабрика

akords.org » A » Armstrong Louis » What A Wonderful World 2
Знайти необхідні акорди

Armstrong Louis - What A Wonderful World 2  табулатура

Louis Armstrong
What A Wonderful World melody
professorduck@mail.ru

I found the chords for this beautiful song on the site but I could not find a
tab for the melody. Once I figured it out I decided it would be selfish of me
not to share. So here it is, the gorgeous melody of Armstrong's breathtaking baritone.
This tab is not 100% accurate, but it has the basic notes of the melody. You can pick
them out as you see fit. I included lyrics of the first verse to help you find the melody.


*** Part 1 ***

F Am Bb Am
e-|------------------|------------------------|
B-|------------------|------------------------|
G-|--------2--3--5---|---7---7-7-7-5----------|
D-|--3--5------------|------------------------|
A-|------------------|------------------------|
E-|------------------|------------------------|
I see trees of green Red roses too
I see skys of blue And clouds of white

Gm7 F A7 Dm
e-|------------------|------------------------|
B-|------------------|------------------------|
G-|------------------|------------------------|
D-|--3--3-----5--2---|----------------2-------|
A-|----------------5-|-3-------5---5------3---|
E-|------------------|------------------------|
I see them bloom For me and you
The bright blessed day The dark sacred night

Db Gm7/C C7 F
e-|-------------------|-----------------------|
B-|-------------------|-----------------------|
G-|-------------------|-------------2---------|
D-|--3--3-----3--3-3--|---2----3-5-----5-/-7--|
A-|-------------------|-----------------------|
E-|-------------------|-----------------------|
And I think to myself What a wonderful world
And I think to myself What a wonderful world


*** Part 2 ***

C7
e-|-------------------|-----------------------|
B-|-------------------|-----------------------|
G-|-------------------|-----------------------|
D-|--5---5-5----5-----|--5---5---5------------|
A-|-------------------|-----------------------|
E-|-------------------|-----------------------|
The colors of the rainbow
Are also on the faces

F
e-|-------------------|-----------------------|
B-|-------------------|-----------------------|
G-|-------------------|-----------------------|
D-|--7--7--7----------|--7---7--7-------------|
A-|-------------------|-----------------------|
E-|-------------------|-----------------------|
So pretty in the sky
Of people going by


*** Part 3 ***

Dm C
e-|-------------------|-----------------------|
B-|-------------------|-----------------------|
G-|---5---7-------7---|--7---5----------------|
D-|-7-----------------|-----------------------|
A-|-------------------|-----------------------|
E-|-------------------|-----------------------|
I see friends shak - ing hands
They're real - ly

Dm C
e-|-------------------|-----------------------|
B-|-------------------|-----------------------|
G-|---5--7--------7---|--7--7---5-------------|
D-|-------------------|-----------------------|
A-|-------------------|-----------------------|
E-|-------------------|-----------------------|
saying, "How do you do?"
saying, "I love you."

-----------------------------
|  акорди, навчання, відео  |
|     http://akords.org     |
-----------------------------

 (голосів: 0)
   Інші пісні:
  • What A Wonderful World 3
  • What A Wonderful World
  • We Have All The Time
  • Going Away To College
  • Going Away To College
  •  
    Шановний відвідувач, Ви зайшли на сайт як незареєстрований користувач. Ми рекомендуємо Вам реєструватися або зайти на сайт під своїм ім'ям.

    Додавання коментаря

    Ім'я:*
    E-Mail:*
    Коментар:
    Введіть два слова, показані на зображенні: *
     
      

    BLIBL-створити сайт безкоштовно