Зробити стартовою  |  Додати в вибране
 
Пошук по сайту:  
  логін: пароль:  
    Реєстрація на сайті   Нагадати пароль?    

Видавництво Симфонія | Книжкова фабрика

akords.org » A » Animals » Stand Up
Знайти необхідні акорди

Animals - Stand Up  табулатура

If there is an M below it, palm mute it.

TUNING: Drop C#


Intro:

E|------------------------------------------|
B|------------------------------------------|
G|--------10--10------8--8------------------|
D|------------------------------------------|
A|--0--0--8---8---0--0-6--6--0--0--0--0-----|
E|--0--0----------0--0-------0--0--0--0-----|
M M M M M M M
E|-------------------------------------|
B|-------------------------------------|
G|-----10--10--------8--8--------------|
D|-------------------------------------|
A|--0--8---8---0--0--6--6--0--0--0--8--|
E|--0----------0--0--------0--0--0--8--|
M M M M M M

E|-------------------------------------|
B|-------------------------------------|
G|-----10--10--------8--8--------------|
D|-------------------------------------|
A|--0--8---8---0--0--6--6--0--0--0--8--|
E|--0----------0--0--------0--0--0--8--|
M M M M M M

E|----------------------------------------|
B|----------------------------------------|
G|-----10--10--------8--8-----------------|
D|----------------------------------------|
A|--0--8---8---0--0--6--6--0--0--0--0--0--|
E|--0----------0--0--------0--0--0--0--0--|
M M M M M M M M


Verse (x2)


E|------------------------------------------------|
B|------------------------------------------------|
G|------------------------------------------------| X2
D|------7--0--0--8--0--0--7--0--0--7--0--0--0--7--|
A|--3h5-------------------------------------------|
E|------------------------------------------------|

E|--------------------------------------------------------------------|
B|--------------------------------------------------------------------|
G|--------------------------------------------------------5--------5--|
D|--------2--------3--------5--------3--------2-----2--2-----2--2-----|
A|--3--3-----3--3-----3--3-----3--3-----3--3-----3--------------------|
E|--------------------------------------------------------------------|

E|-----------------------|
B|-----------------------|
G|-----------------------|
D|--2--------3--------2--|
A|-----3--3-----0--0-----|
E|-----------------------|

Pre Chorus

E|------------------------|
B|------------------------|
G|------------------------| 2nd time around, repeat the 8 and the 7
D|--8--7--10--------------|
A|--8--7--10--------------|
E|--8--7--10--------------|


Chorus (X2)

E|------------------------------------------|
B|------------------------------------------|
G|--------10--10------8--8------------------|
D|------------------------------------------|
A|--0--0--8---8---0--0-6--6--0--0--0--0-----|
E|--0--0----------0--0-------0--0--0--0-----|
M M M M M M M
E|----------------------------------|
B|----------------------------------|
G|-----10--10--------8--8-----------|
D|----------------------------------|
A|--0--8---8---0--0--6--6--0--0--0--|
E|--0----------0--0--------0--0--0--|
M M M M M M


E|--------------------------------------------------------------------------|
B|--------------------------------------------------------------------------|
G|--------------------------------------------------------------------------|
D|--8--8--8--8--8--8--8--8--7--7--7--7--7--7--7--7--3--3--3--3--3--3--3--3--|
A|--8--8--8--8--8--8--8--8--7--7--7--7--7--7--7--7--3--3--3--3--3--3--3--3--|
E|--8--8--8--8--8--8--8--8--7--7--7--7--7--7--7--7--3--3--3--3--3--3--3--3--|


E|--------------------------|
B|--------------------------|
G|--------------------------|
D|--0--0--3--0--3--5--3--0--|
A|--0--0--3--0--3--5--3--0--|
E|--0--0--3--0--3--5--3--0--|
M M M

Post chorus

E|------------------------------------------|
B|------------------------------------------|
G|--------10--10------8--8------------------|
D|------------------------------------------|
A|--0--0--8---8---0--0-6--6--0--0--0--0-----|
E|--0--0----------0--0-------0--0--0--0-----|
M M M M M M M M


Bridge (X2)

E|--------------------------|
B|--------------------------|
G|--------------------------|
D|--------7--8--------2--3--|
A|-----5-----------3--------|
E|--5-----------3-----------|


I don't know the solo, but it cant be THAT hard to figure out.

-----------------------------
|  акорди, навчання, відео  |
|     http://akords.org     |
-----------------------------

 (голосів: 0)
   Інші пісні:
  • Hand Of Doom
  • Anthem Part Two
  • Whats My Age Again
  • Voyeur
  • Worlds Collide
  •  
    Шановний відвідувач, Ви зайшли на сайт як незареєстрований користувач. Ми рекомендуємо Вам реєструватися або зайти на сайт під своїм ім'ям.

    Додавання коментаря

    Ім'я:*
    E-Mail:*
    Коментар:
    Введіть два слова, показані на зображенні: *
     
      

    BLIBL-створити сайт безкоштовно