Зробити стартовою  |  Додати в вибране
 
Пошук по сайту:  
  логін: пароль:  
    Реєстрація на сайті   Нагадати пароль?    

Видавництво Симфонія | Книжкова фабрика

akords.org » A » Animals » Good Times
Знайти необхідні акорди

Animals - Good Times  табулатура

good times

intro
------------------7--10--8-----7--8--7-------------------|
--------7--8--10------------------------10--8--10--8-----|
--7--9-----------------------------------------------(7)-|
---------------------------------------------------------|
---------------------------------------------------------|
---------------------------------------------------------|

verses 1,2
C D G
when I think of all the good times that ive wasted having good times
when I think of all the good times thats been wasted having good times

strings
-----------|
-----------|
-----------|
-----------|
-----------|
-2s3-2s3---|

pre choruss

Em D
(1)when I was drinking i should have been thinking
(2)all of my lying i remember her crying
(3)useless talking all of that walking

when I was fighting i could have done the right thing
my useless talking i could have been walking
all of my sinning i could have been winning

all of that boozing i was really losing
instead of complaining i could have been gaining
i had it to easy and its a beginning

Em
good times

stings
------------------|
------------------|
------------------|
-2-----0---2--2---|
----2-------------|
------------------|

Em
good times

interlude (w/verse chords)

yeah here we all are
having a jolly good time
everything is working out fine

G Em
---------|
---------|
---------|
---------|
---------|
-3-2-1-0-|

outro
Em G
good times said good times
talking about good times

-----------------------------
|  акорди, навчання, відео  |
|     http://akords.org     |
-----------------------------

 (голосів: 0)
   Інші пісні:
  • Good Times
  • Good Day Sunshine
  • Hello Goodbye 4
  • Good Times Intro
  • Let The Good Times Roll
  •  
    Шановний відвідувач, Ви зайшли на сайт як незареєстрований користувач. Ми рекомендуємо Вам реєструватися або зайти на сайт під своїм ім'ям.

    Додавання коментаря

    Ім'я:*
    E-Mail:*
    Коментар:
    Введіть два слова, показані на зображенні: *
     
      

    BLIBL-створити сайт безкоштовно