Зробити стартовою  |  Додати в вибране
 
Пошук по сайту:  
  логін: пароль:  
    Реєстрація на сайті   Нагадати пароль?    

Видавництво Симфонія | Книжкова фабрика

akords.org » A » Aerosmith » Flesh
Знайти необхідні акорди

Aerosmith - Flesh  табулатура

Band: Aerosmith
Song: Flesh



Guitar # 1:


E E E E E E E E
E||-------------------------------------------|
B||-------------------------------------------|
G||*------------------------------------------|
D||*--7g7--7g7--7g7--7g7--7g7--7g7--7g7--7g7--|
A||-------------------------------------------|
E||-------------------------------------------|


E E E E E E E E W
-----------------------------------|--0----------------|
-----------------------------------|--0----------------|
-----------------------------------|-------------------|
--7g7--7g7--7g7--7g7--7--8---------|-------------------|
----------------------------7-----|-------------------|
--------------------------------0--|--L----------------|


E E Q H W S S S S Q E S S S E.
--L--------------------||---0-----------------|----------------------------|
--L--------------------||---0-----------------|----------------------------|
----------------------*||---------------------|----------------------------|
-----x----------------*||---------------------|--x-x-x-----------x-x-x-----|
-----x-----------------||---------------------|--x-x-x-----------x-x-x-----|
--L--0-----------------||--(0)----------------|--x-x-x-----------x-x-x-----|


PM PM PM PM PM
H S S S S E S S E E Q H E E E E E E E E
--------------------------|----------------------|--------------------------|
--------------------------|----------------------|--9--------9--------9-----|
--------------------------|----------------------|--------------------------|
-----------x-x-x------x-x-|--x-------------------|--9--------9--------9-----|
-----------x-x-x------x-x-|--x-------------------|--------------------------|
-----------x-x-x------0-0-|--0-------------------|-----0--0-----0--0-----0--|


PM PM PM PM PM PM PM PM PM PM
E E E E E E E E E E E E E E E E
--------------------------|--------------------------|
--8--------8--------8-----|--9--------9--------9-----|
--------------------------|--------------------------|
--8--------8--------8-----|--9--------9--------9-----|
--------------------------|--------------------------|
-----0--0-----0--0-----0--|-----0--0-----0--0-----0--|


PM PM PM PM PM PM PM PM PM PM
E E E E E E E E E E E E E E E E
--------------------------|--------------------------|
--8--------8--------8-----|--9--------9--------9-----|
--------------------------|--------------------------|
--8--------8--------8-----|--9--------9--------9-----|
--------------------------|--------------------------|
-----0--0-----0--0-----0--|-----0--0-----0--0-----0--|


PM PM PM PM PM PM PM PM PM PM
E E E E E E E E E E E E E E E E
--------------------------|--------------------------|
--8--------8--------8-----|--9--------9--------9-----|
--------------------------|--------------------------|
--8--------8--------8-----|--9--------9--------9-----|
--------------------------|--------------------------|
-----0--0-----0--0-----0--|-----0--0-----0--0-----0--|


PM PM PM PM PM
E E E E E E E E H Q E S S H Q E S S
--------------------------|--(5)--------L----L--3-3-|--3--------L----L--5-5-|
--8--------8--------8-----|--(5)--------L----L--3-3-|--3--------L----L--5-5-|
--------------------------|---2---------L----L--0-0-|--0--------L----L--2-2-|
--8--------8--------8-----|---2---------L----L--0-0-|--0--------L----L--2-2-|
--------------------------|---0---------L----L------|-----------------------|
-----0--0-----0--0-----0--|-------------------------|-----------------------|


H Q E S S H Q E S S H Q E E
--5--------L----L--3-3-|--3--------L----L------|-------------------3--|
--5--------L----L--3-3-|--3--------L----L------|-------------------3--|
--2--------L----L--0-0-|--0--------L----L--4-4-|--4--------L----L--0--|
--2--------L----L--0-0-|--0--------L----L--4-4-|--4--------L----L--0--|
-----------------------|-------------------2-2-|--2--------L----L-----|
-----------------------|-----------------------|----------------------|


Q. E H E E E E E E Q
--3------5--L--------|-------------------------------|
--3------5--L--------|-------------------------------|
--0------2--L--------|-------------------------------|
--0------2--L--------|-------------------------------|
---------------------|--9--L-----10s--7--7s--11----|
---------------------|--7--L------8s--5--5s---9----|


E E Q Q Q E E E E E E E E
-----------------------------|-----------------0--------|
-----------------------------|-----------------0--------|
-----------------------------|-----------------------7--|
-----------------------------|-----0--2--------------7--|
-----/12---L----13----13----|-----0--2--------------5--|
-----/10---L----11----11----|--0--------0--3-----------|


E E E E E E Q E E E E E E E E
----------------------------|-------------------0--------|
----------------------------|-------------------0--------|
--L--9--9--7--9-------------|-------------------------7--|
--L--9--9--7--9-------------|-------0--2--------------7--|
--L--7--7--5--7-------------|-------0--2--------------5--|
-----------------3s--15~----|---L~--------0--3-----------|


E E E E E E Q E E E E E E E E
-------------------------------|-----------------0--------|
-----------------8g8pbr--L~----|-----------------0--------|
--L--9--9--7-------------------|-----------------------7--|
--L--9--9--7-------------------|-----0--2--------------7--|
--L--7--7--5-------------------|-----0--2--------------5--|
--------------0----------------|--0--------0--3-----------|


E E E E E E Q E E E E E E E E
----------------------------|-------------------0--------|
----------------------------|-------------------0--------|
--L--9--9--7--9-------------|-------------------------7--|
--L--9--9--7--9-------------|-------0--2--------------7--|
--L--7--7--5--7-------------|-------0--2--------------5--|
-----------------3s--15~----|---L~--------0--3-----------|


E E E E E E Q E E E E E E E E
-------------------------------|--------8-----------8------|
-----------------8g8pbr--L~----|--------8-----------8------|
--L--9--9--7-------------------|---------------------------|
--L--9--9--7-------------------|---------------------------|
--L--7--7--5-------------------|---------------------------|
--------------0----------------|--8--8-----8--8--8-----/7--|


E E E E Q E S S E E E E E E E E
--------7-----------7------|--------5--------5--5-----|
--------7-----------7------|--------5--------5--5-----|
---------------------------|--------------------------|
---------------------------|--------------------------|
---------------------------|--------------------------|
--7--7-----/7--7-------5-5-|--5--5-----5--5-----------|


NH
E E E E E E Q H Q E E
--5--3--5--5g5pbr--L--3-------|-------------------------|
-------------------------5----|-------------------------|
------------------------------|-------------------<>12--|
------------------------------|-------------------------|
------------------------------|-------------------------|
------------------------------|-------------------------|


NH NH NH NH -/0
Q. E E S S Q W
-------------------------------------------|-------------------|
-------------------------------------------|-------------------|
---<>L-------<>Lb---<>Lpb---<>Lb--<>L------|-------------------|
-------------------------------------------|-------------------|
-------------------------------------------|-------------------|
-------------------------------------------|-------------------|


PM PM PM PM PM PM PM PM PM PM PM
W E E E E E E E E E E E E E E E E
-------------------|--------------------------|--------------------------|
-------------------|--------------------------|--------------------------|
-------------------|--9--------9--------9-----|--9--------9--------------|
-------------------|--9--------9--------9-----|--9--------9--------------|
-------------------|--7--------7--------7-----|--7--------7--------------|
-------------------|-----0--0-----0--0-----0--|-----0--0-----0--0--0--0--|


PM PM PM PM PM PM PM PM PM PM PM
E E E E E E E E E E E E E E E E
--------------------------|--------------------------|
--------------------------|--------------------------|
--9--------9--------9-----|--9--------9--------------|
--9--------9--------9-----|--9--------9--------------|
--7--------7--------7-----|--7--------7--------------|
-----0--0-----0--0-----0--|-----0--0-----0--0--0--0--|


PM PM PM PM PM PM PM PM PM PM PM
E E E E E E E E E E E E E E E E
--------------------------|--------------------------|
--------------------------|--------------------------|
--9--------9--------9-----|--9--------9--------------|
--9--------9--------9-----|--9--------9--------------|
--7--------7--------7-----|--7--------7--------------|
-----0--0-----0--0-----0--|-----0--0-----0--0--0--0--|


PM PM PM PM PM PM PM PM PM PM PM
E E E E E E E E E E E E E E E E
--------------------------|--------------------------|
--------------------------|--------------------------|
--9--------9--------9-----|--9--------9--------------|
--9--------9--------9-----|--9--------9--------------|
--7--------7--------7-----|--7--------7--------------|
-----0--0-----0--0-----0--|-----0--0-----0--0--0--0--|


PM PM PM PM PM PM PM PM PM
E E E E E E E E E E E E E E E E
--------------------------|---------------------------|
--------------------------|---------------------------|
--------------------------|---------------------------|
--7--------7--------7-----|--7s--5-----5--------5-----|
--7--------7--------7-----|--7s--5-----5--------5-----|
--5--5--5--5--5--5--5--5--|--5s--3--3--3--3--3--3--3--|


PM PM PM PM PM PM PM PM
E E E E E E E E E E E E E E E E
---------------------------|---------------------------|
---------------------------|---------------------------|
---------------------------|---------------------------|
--5s--7-----7--------7-----|--7s--5-----5--------5-----|
--5s--7-----7--------7-----|--7s--5-----5--------5-----|
--3s--5--5--5--5--5--5--5--|--5s--3--3--3--3--3--3--3--|


PM PM PM PM PM PM PM PM PM PM PM PM PM PM PM PM
E E E E E E E E E E E E E E E E Q. E Q Q
--------------------------|--------------------------|-------------------------|
--------------------------|--------------------------|-------------------------|
--------------------------|--------------------------|-------------------------|
--9--------9--------9-----|--5--------7--------------|--9------10---L----11----|
--9--------9--------9-----|--5--------7--------------|--9------10---L----11----|
--7--7--7--7--7--7--7--7--|--3--3--3--5--5--5--5--5--|--7-------8---L-----9----|


E Q. Q Q E E E E E E E E
--------------------------|-----------------0--------|
--------------------------|-----------------0--------|
--------------------------|-----------------------7--|
---L--12------13----13----|-----0--2--------------7--|
---L--12------13----13----|-----0--2--------------5--|
---L--10------11----11----|--0--------0--3-----------|


E E E E E E Q E E E E E E E E
----------------------------|-------------------0--------|
----------------------------|-------------------0--------|
--L--9--9--7--9-------------|-------------------------7--|
--L--9--9--7--9-------------|-------0--2--------------7--|
--L--7--7--5--7-------------|-------0--2--------------5--|
-----------------3s--15~----|---L~--------0--3-----------|


E E E E E E Q E E E E E E E E
-------------------------------|-----------------0--------|
-----------------8g8pbr--L~----|-----------------0--------|
--L--9--9--7-------------------|-----------------------7--|
--L--9--9--7-------------------|-----0--2--------------7--|
--L--7--7--5-------------------|-----0--2--------------5--|
--------------0----------------|--0--------0--3-----------|


E E E E E E Q E E E E E E E E
----------------------------|-------------------0--------|
----------------------------|-------------------0--------|
--L--9--9--7--9-------------|-------------------------7--|
--L--9--9--7--9-------------|-------0--2--------------7--|
--L--7--7--5--7-------------|-------0--2--------------5--|
-----------------3s--15~----|---L~--------0--3-----------|


E E E E E E Q E E E E E E E E
-------------------------------|--------8--------8--8--8--|
-----------------8g8pbr--L~----|--------8--------8--8--8--|
--L--9--9--7-------------------|--------------------------|
--L--9--9--7-------------------|--------------------------|
--L--7--7--5-------------------|--------------------------|
--------------0----------------|--8--8-----8--8-----------|


E E E E E E E E E E E E E E E E
--------7--7-----7--7-----|-----5--5--5--5--5--5-----|
--------7--7-----7--7-----|-----5--5--5--5--5--5-----|
--------------------------|--------------------------|
--------------------------|--------------------------|
--9--9--------9-----------|--------------------------|
--7--7--------7--------7--|--5-----------------------|


E E E E E E Q W W
--5--3--5--5g5pbr--L--3-------|-------------------|-------------------|
-------------------------5----|-------------------|-------------------|
------------------------------|-------------------|-------------------|
------------------------------|-------------------|-------------------|
------------------------------|-------------------|-------------------|
------------------------------|--0----------------|--L----------------|


W W W W
-------------------|-------------------|-------------------|-------------------|
-------------------|-------------------|-------------------|-------------------|
-------------------|-------------------|--7----------------|--L----------------|
-------------------|-------------------|--9----------------|--L----------------|
-------------------|-------------------|--7----------------|--L----------------|
--L----------------|--L----------------|-------------------|-------------------|


W W E E E E E E E E
-------------------|-------------------|----------------------------------|
-------------------|-------------------|----------------------------------|
--L----------------|--L----------------|----------------------------------|
--L----------------|--L----------------|--7~--7~--7~--7~--7~--7~--7~--7~--|
--L----------------|--L----------------|----------------------------------|
-------------------|-------------------|----------------------------------|


E E E E E E Q E E E E E E Q
------------------------------|--3--3-----3--3----------|
------------------------------|--3--3-----3--3----------|
------------------------------|-------------------------|
--7~--7~--7~--7~--7--5--------|-------------------------|
------------------------7----|-------------------------|
------------------------------|-------------------------|


E E E E E E Q E E E E E E E E
--3--3-----3--3----------|----------------------------------|
--3--3-----3--3----------|----------------------------------|
-------------------------|----------------------------------|
-------------------------|--7~--7~--7~--7~--7~--7~--7~--7~--|
-------------------------|----------------------------------|
-------------------------|----------------------------------|


E E E E E E Q E E E E E E Q
------------------------------|--3--3-----3--3----------|
------------------------------|--3--3-----3--3----------|
------------------------------|-------------------------|
--7~--7~--7~--7~--7--5--------|-------------------------|
------------------------7----|-------------------------|
------------------------------|-------------------------|


E E E E E E Q E E E E E E E E
--3--3-----3--3----------|----------------------------------|
--3--3-----3--3----------|----------------------------------|
-------------------------|----------------------------------|
-------------------------|--7~--7~--7~--7~--7~--7~--7~--7~--|
-------------------------|----------------------------------|
-------------------------|----------------------------------|


E E E E E E Q E E E E E E Q
------------------------------|--3--3-----3--3----------|
------------------------------|--3--3-----3--3----------|
------------------------------|-------------------------|
--7~--7~--7~--7~--7--5--------|-------------------------|
------------------------7----|-------------------------|
------------------------------|-------------------------|


E E E E E E Q E E E E E E E E
--3--3-----3--3----------|----------------------------------|
--3--3-----3--3----------|----------------------------------|
-------------------------|----------------------------------|
-------------------------|--7~--7~--7~--7~--7~--7~--7~--7~--|
-------------------------|----------------------------------|
-------------------------|----------------------------------|


E E E E E E Q H E Q.
------------------------------|-------------------------|
------------------------------|-------------------------|
------------------------------|--9b--------Lpb--L~------|
--7~--7~--7~--7~--7--5--------|-------------------------|
------------------------7----|-------------------------|
------------------------------|-------------------------|


S S S S E S S S S S S S S S S
-------------------------------------|
-----------------10p-7---7-7---------|
--7-9---7-L----7-------9-7-7h-9p-7---|
------9------9---------------------9-|
-------------------------------------|
-------------------------------------|


S S S S E T T S S S S S E S S S S E E E E S S S S E
-------------7------------------------------|--------------------------------|
--9------------10p-7~-L~--------------------|-------------------------7------|
--9---7-9-L--------------7h-9-0-7g7pbr--L---|---------------------7---7------|
----9-------------------------------------9-|--L-7-9--L~--7--------9---9-7--|
--------------------------------------------|-----------------/9-------------|
--------------------------------------------|--------------------------------|


|---3---|
S S S S E E E E. S E S S
-----------------------------------------------7-|
--------------------------------------------10---|
----------------------7g<>7pb---<>Lpbr-<>L-------|
----9p-7---7--9--<>9-----------------------------|
--9------9---------------------------------------|
-------------------------------------------------|


S E. S T T S S Q E E
----10~----Lpbr--L---------------------------|
--7-------------10p-7------10----L----10-----|
----------------------9-12g12pb--L--------0--|
---------------------------------------------|
---------------------------------------------|
---------------------------------------------|


Q E E E E Q
---------------------------------------------|
-----12----9-----13-----L------L-----14------|
--11g11-------12g12pb---Lpbr---L--13g13pb----|
---------------------------------------------|
---------------------------------------------|
---------------------------------------------|


E Q. Q Q W
-----------------------------------|---------------------|
---L-----15---------16-------17----|--18-----------------|
---L--14g14------15g15----16g16----|--17b----------------|
-----------------------------------|---------------------|
-----------------------------------|---------------------|
-----------------------------------|---------------------|


E H. E W H. Q
-----------------------|---------------------|----------------------|
------L------------15--|--19-----------------|---L------------------|
------L----------------|--18b----------------|---L------------19----|
-----------------------|---------------------|----------------------|
-----------------------|---------------------|----------------------|
-----------------------|---------------------|----------------------|


W H H W
---------------------|---------------------|-------------------|
---------------------|---------------------|-------------------|
---Lb----------------|---L-----------------|-------------------|
---------------------|---------------------|-------------------|
---------------------|---------------------|-------------------|
---------------------|---------------------|-------------------|


W W W W
-------------------|-------------------|-------------------|-------------------|
-------------------|-------------------|-------------------|-------------------|
-------------------|-------------------|-------------------|-------------------|
-------------------|-------------------|-------------------|-------------------|
-------------------|-------------------|-------------------|-------------------|
-------------------|-------------------|-------------------|-------------------|


W W W W
-------------------|-------------------|-------------------|-------------------|
-------------------|-------------------|-------------------|-------------------|
-------------------|-------------------|-------------------|-------------------|
-------------------|-------------------|-------------------|-------------------|
-------------------|-------------------|-------------------|-------------------|
-------------------|-------------------|-------------------|-------------------|


E E E E E E E E E E E E E E Q
-----------------0--------|----------------------------|
-----------------0--------|----------------------------|
-----------------------7--|--L--9--9--7--9-------------|
-----0--2--------------7--|--L--9--9--7--9-------------|
-----0--2--------------5--|--L--7--7--5--7-------------|
--0--------0--3-----------|-----------------3s--15~----|


E E E E E E E E E E E E E E Q
-------------------0--------|-------------------------------|
-------------------0--------|-----------------8g8pbr--L~----|
-------------------------7--|--L--9--9--7-------------------|
-------0--2--------------7--|--L--9--9--7-------------------|
-------0--2--------------5--|--L--7--7--5-------------------|
---L~--------0--3-----------|--------------0----------------|


E E E E E E E E E E E E E E Q
-----------------0--------|----------------------------|
-----------------0--------|----------------------------|
-----------------------7--|--L--9--9--7--9-------------|
-----0--2--------------7--|--L--9--9--7--9-------------|
-----0--2--------------5--|--L--7--7--5--7-------------|
--0--------0--3-----------|-----------------3s--15~----|


E E E E E E E E E E E E E E Q
-------------------0--------|-------------------------------|
-------------------0--------|-----------------8g8pbr--L~----|
-------------------------7--|--L--9--9--7-------------------|
-------0--2--------------7--|--L--9--9--7-------------------|
-------0--2--------------5--|--L--7--7--5-------------------|
---L~--------0--3-----------|--------------0----------------|


E E E E E E E E E E E E E E Q
-----------------0--------|----------------------------|
-----------------0--------|----------------------------|
-----------------------7--|--L--9--9--7--9-------------|
-----0--2--------------7--|--L--9--9--7--9-------------|
-----0--2--------------5--|--L--7--7--5--7-------------|
--0--------0--3-----------|-----------------3s--15~----|


E E E E E E E E E E E E E E Q
-------------------0--------|-------------------------------|
-------------------0--------|-----------------8g8pbr--L~----|
-------------------------7--|--L--9--9--7-------------------|
-------0--2--------------7--|--L--9--9--7-------------------|
-------0--2--------------5--|--L--7--7--5-------------------|
---L~--------0--3-----------|--------------0----------------|


E E E E E E E E E E E E E E Q
-----------------0--------|----------------------------|
-----------------0--------|----------------------------|
-----------------------7--|--L--9--9--7--9-------------|
-----0--2--------------7--|--L--9--9--7--9-------------|
-----0--2--------------5--|--L--7--7--5--7-------------|
--0--------0--3-----------|-----------------3s--15~----|


E E E E E E E E E E E E E E Q
-------------------0--------|-------------------------------|
-------------------0--------|-----------------8g8pbr--L~----|
-------------------------7--|--L--9--9--7-------------------|
-------0--2--------------7--|--L--9--9--7-------------------|
-------0--2--------------5--|--L--7--7--5-------------------|
---L~--------0--3-----------|--------------0----------------|


Q E E E E E E E E E E E E E E
---------8--8------8------8--|-------7-------7-------7--7--L--|
---8~----8--8---8--8---8--8--|----7--7----7--7----7--7--7--L--|
--10~-----------L------L-----|--9g9-----9g9-----9g9------------|
-----------------------------|---------------------------------|
-----------------------------|---------------------------------|
-----------------------------|---------------------------------|


E E E E E E Q E E E E E E Q H H
-----5-----5-----5--------|--5--3--5--5g5pbr--L--3-------|--------------------|
--5--5--5--5--5--5--------|-------------------------5----|--L-----------------|
--L-----L-----L-----L~----|------------------------------|--------------------|
--------------------------|------------------------------|--------------------|
--------------------------|------------------------------|--------------------|
--------------------------|------------------------------|--------------------|


H S E. E E W W
-------------------------|-------------------|-------------------|
-------------------------|-------------------|-------------------|
-------------0---L--0g0--|-------------------|-------------------|
-------------------------|-------------------|-------------------|
-------------------------|-------------------|-------------------|
-------------------------|-------------------|-------------------|


W W
-------------------|-------------------||
-------------------|-------------------||
-------------------|-------------------||
-------------------|-------------------||
-------------------|-------------------||
-------------------|-------------------||










Guitar # 2:



E E E E E E E E
E||-------------------------------------------|
B||-------------------------------------------|
G||*------------------------------------------|
D||*--7g7--7g7--7g7--7g7--7g7--7g7--7g7--7g7--|
A||-------------------------------------------|
E||-------------------------------------------|


E E E E E E E E W W
-------------------------------0--|--L----------------|--L-----------------||
-------------------------------0--|--L----------------|--L-----------------||
-------------------------------9--|--L----------------|--L----------------*||
--7g7--7g7--7g7--7g7--7--5-----9--|--L----------------|--L----------------*||
----------------------------7--7--|--L----------------|--L-----------------||
-------------------------------0--|--L----------------|--L-----------------||


W W W W
--L----------------|--L----------------|--L----------------|--L----------------|
--L----------------|--L----------------|--L----------------|--L----------------|
--L----------------|--L----------------|--L----------------|--L----------------|
--L----------------|--L----------------|--L----------------|--L----------------|
--L----------------|--L----------------|--L----------------|--L----------------|
--L----------------|--L----------------|--L----------------|--L----------------|


PM PM PM PM PM PM PM PM PM PM PM PM PM PM PM PM
E E E E E E E E E E E E E E E E
--------------------------|--------------------------|
--------------------------|--------------------------|
--------------------------|--------------------------|
--------------------------|--------------------------|
--------------------------|--------------------------|
--0--0--0--0--0--0--0--0--|--0--0--0--0--0--0--0--0--|


PM PM PM PM PM PM PM PM PM PM PM PM PM PM PM PM
E E E E E E E E E E E E E E E E
--------------------------|--------------------------|
--------------------------|--------------------------|
--------------------------|--------------------------|
--------------------------|--------------------------|
--------------------------|--------------------------|
--0--0--0--0--0--0--0--0--|--0--0--0--0--0--0--0--0--|


PM PM PM PM PM PM PM PM PM PM PM PM PM PM PM PM
E E E E E E E E E E E E E E E E
--------------------------|--------------------------|
--------------------------|--------------------------|
--------------------------|--------------------------|
--------------------------|--------------------------|
--------------------------|--------------------------|
--0--0--0--0--0--0--0--0--|--0--0--0--0--0--0--0--0--|


PM PM PM PM PM PM PM PM PM PM PM PM PM PM PM PM
E E E E E E E E E E E E E E E E
--------------------------|--------------------------|
--------------------------|--------------------------|
--------------------------|--------------------------|
--------------------------|--------------------------|
--------------------------|--------------------------|
--0--0--0--0--0--0--0--0--|--0--0--0--0--0--0--0--0--|


PM PM PM PM PM PM PM PM PM PM PM PM PM PM PM PM
E E E E E E E E E E E E E E E E
--------------------------|--------------------------|
--------------------------|--------------------------|
--------------------------|--------------------------|
--7--------7--------7-----|--7--5-----5--------5-----|
--7--------7--------7-----|--7--5-----5--------5-----|
--5--5--5--5--5--5--5--5--|--5--3--3--3--3--3--3--3--|


PM PM PM PM PM PM PM PM PM PM PM PM PM PM PM PM
E E E E E E E E E E E E E E E E
--------------------------|--------------------------|
--------------------------|--------------------------|
--------------------------|--------------------------|
--7--------7--------7-----|--7--5-----5--------5-----|
--7--------7--------7-----|--7--5-----5--------5-----|
--5--5--5--5--5--5--5--5--|--5--3--3--3--3--3--3--3--|


PM PM PM PM PM PM PM PM PM PM PM PM PM PM PM PM
E E E E E E E E E E E E E E E E Q. E Q Q
--------------------------|--------------------------|-------------------------|
--------------------------|--------------------------|-------------------------|
--------------------------|--------------------------|-------------------------|
--9--------9--------9-----|--5--------7--------------|--9------10---L----11----|
--9--------9--------9-----|--5--------7--------------|--9------10---L----11----|
--7--7--7--7--7--7--7--7--|--3--3--3--5--5--5--5--5--|--7-------8---L-----9----|


E Q. Q Q E E E E E Q E E E E E E E Q
--------------------------|-------------------------|--------------------------|
--------------------------|-------------------------|--------------------------|
--------------------------|-----7--9-------------7--|--L--9--9--7--9--L-------|
---L--12------13----13----|-----7--9-------------7--|--L--9--9--7--9--L-------|
---L--12------13----13----|-----5--7-------------5--|--L--7--7--5--7--L-------|
---L--10------11----11----|-----------0--3--0-------|--------------------------|


E E E E E Q E E E E E E E Q E E E E E Q E
-------------------------|--------------------------|-------------------------|
-------------------------|--------------------------|-------------------------|
-----7--9-------------7--|--L--9--9--7--9--L-------|-----7--9-------------7--|
-----7--9-------------7--|--L--9--9--7--9--L-------|-----7--9-------------7--|
-----5--7-------------5--|--L--7--7--5--7--L-------|-----5--7-------------5--|
-----------0--3--0-------|--------------------------|-----------0--3--0-------|


E E E E E Q. E E E E E Q E E E E E Q Q
-------------------------|-------------------------|-------------------------|
-------------------------|-------------------------|-------------------------|
--L--9--9--7--9----------|----------------------7--|--L--9--9--7--9---------|
--L--9--9--7--9--5~------|--0--0--2-------------7--|--L--9--9--7--9---------|
--L--7--7--5--7----------|--0--0--2-------------5--|--L--7--7--5--7---------|
-------------------------|--------0--0--3--0-------|-------------------------|


E E E E E E E E E E E E E E E E
----------------------------------|--------------------------|
----------------------------------|--------------------------|
----------------------------------|--------------------------|
--10--10--10--10--10--10--10--10--|--9--9--9--9--9--9--9--9--|
--10--10--10--10--10--10--10--10--|--9--9--9--9--9--9--9--9--|
---8---8---8---8---8---8---8---8--|--7--7--7--7--7--7--7--7--|


E E E E Q Q E E E E E E Q W
------------------------|------------------------------|-------------------|
------------------------|------------------------------|-------------------|
------------------------|------------------------------|-------------------|
--7--7--7--7--7----7----|------------------------------|-------------------|
--7--7--7--7--7----7----|------------------------------|-------------------|
--5--5--5--5--5----5----|--5--3--5--5g5pbr--L--3--0----|--L----------------|


W W W
-------------------|-------------------|-------------------|
-------------------|-------------------|-------------------|
-------------------|-------------------|-------------------|
-------------------|-------------------|-------------------|
-------------------|-------------------|-------------------|
--L----------------|--L----------------|--L----------------|


PM PM PM PM PM PM PM PM PM PM PM PM PM PM PM PM
E E E E E E E E E E E E E E E E
--------------------------|--------------------------|
--------------------------|--------------------------|
--------------------------|--------------------------|
--------------------------|--------------------------|
--------------------------|--------------------------|
--0--0--0--0--0--0--0--0--|--0--0--0--0--0--0--0--0--|


PM PM PM PM PM PM PM PM PM PM PM PM PM PM PM PM
E E E E E E E E E E E E E E E E
--------------------------|--------------------------|
--------------------------|--------------------------|
--------------------------|--------------------------|
--------------------------|--------------------------|
--------------------------|--------------------------|
--0--0--0--0--0--0--0--0--|--0--0--0--0--0--0--0--0--|


PM PM PM PM PM PM PM PM PM PM PM PM PM PM PM PM
E E E E E E E E E E E E E E E E
--------------------------|--------------------------|
--------------------------|--------------------------|
--------------------------|--------------------------|
--------------------------|--------------------------|
--------------------------|--------------------------|
--0--0--0--0--0--0--0--0--|--0--0--0--0--0--0--0--0--|


PM PM PM PM PM PM PM PM PM PM PM PM PM PM PM PM
E E E E E E E E E E E E E E E E
--------------------------|--------------------------|
--------------------------|--------------------------|
--------------------------|--------------------------|
--------------------------|--------------------------|
--------------------------|--------------------------|
--0--0--0--0--0--0--0--0--|--0--0--0--0--0--0--0--0--|


PM PM PM PM PM PM PM PM PM PM PM PM PM PM PM PM
E E E E E E E E E E E E E E E E
--------------------------|--------------------------|
--------------------------|--------------------------|
--------------------------|--------------------------|
--7--------7--------7-----|--7--5-----5--------5-----|
--7--------7--------7-----|--7--5-----5--------5-----|
--5--5--5--5--5--5--5--5--|--5--3--3--3--3--3--3--3--|


PM PM PM PM PM PM PM PM PM PM PM PM PM PM PM PM
E E E E E E E E E E E E E E E E
--------------------------|--------------------------|
--------------------------|--------------------------|
--------------------------|--------------------------|
--7--------7--------7-----|--7--5-----5--------5-----|
--7--------7--------7-----|--7--5-----5--------5-----|
--5--5--5--5--5--5--5--5--|--5--3--3--3--3--3--3--3--|


PM PM PM PM PM PM PM PM PM PM PM PM PM PM PM PM
E E E E E E E E E E E E E E E E Q. E Q Q
--------------------------|--------------------------|-------------------------|
--------------------------|--------------------------|-------------------------|
--------------------------|--------------------------|-------------------------|
--9--------9--------9-----|--5--------7--------------|--9------10---L----11----|
--9--------9--------9-----|--5--------7--------------|--9------10---L----11----|
--7--7--7--7--7--7--7--7--|--3--3--3--5--5--5--5--5--|--7-------8---L-----9----|


E Q. Q Q E E E E E Q E E E E E E E Q
--------------------------|-------------------------|--------------------------|
--------------------------|-------------------------|--------------------------|
--------------------------|-----7--9-------------7--|--L--9--9--7--9--L-------|
---L--12------13----13----|-----7--9-------------7--|--L--9--9--7--9--L-------|
---L--12------13----13----|-----5--7-------------5--|--L--7--7--5--7--L-------|
---L--10------11----11----|-----------0--3--0-------|--------------------------|


E E E E E Q E E E E E E E Q E E E E E Q E
-------------------------|--------------------------|-------------------------|
-------------------------|--------------------------|-------------------------|
-----7--9-------------7--|--L--9--9--7--9--L-------|-----7--9-------------7--|
-----7--9-------------7--|--L--9--9--7--9--L-------|-----7--9-------------7--|
-----5--7-------------5--|--L--7--7--5--7--L-------|-----5--7-------------5--|
-----------0--3--0-------|--------------------------|-----------0--3--0-------|


E E E E E Q. E E E E E Q E E E E E Q Q
-------------------------|-------------------------|-------------------------|
-------------------------|-------------------------|-------------------------|
--L--9--9--7--9----------|----------------------7--|--L--9--9--7--9---------|
--L--9--9--7--9--5~------|--0--0--2-------------7--|--L--9--9--7--9---------|
--L--7--7--5--7----------|--0--0--2-------------5--|--L--7--7--5--7---------|
-------------------------|--------0--0--3--0-------|-------------------------|


E E E E E E E E E E E E E E E E
----------------------------------|--------------------------|
----------------------------------|--------------------------|
----------------------------------|--------------------------|
--10--10--10--10--10--10--10--10--|--9--9--9--9--9--9--9--9--|
--10--10--10--10--10--10--10--10--|--9--9--9--9--9--9--9--9--|
---8---8---8---8---8---8---8---8--|--7--7--7--7--7--7--7--7--|


E E E E Q Q E E E E E E Q
------------------------|------------------------------|
------------------------|------------------------------|
------------------------|------------------------------|
--7--7--7--7--7----7----|------------------------------|
--7--7--7--7--7----7----|--5--3--5--5g5pbr--L--3--0----|
--5--5--5--5--5----5----|------------------------------|


Q. E H Q. E H Q. E H
------------------------|------------------------|------------------------|
------------------------|------------------------|------------------------|
------------------------|------------------------|------------------------|
------------------------|------------------------|------------------------|
------------------------|------------------------|------------------------|
--0------1s--12~--------|--1------1s--13~--------|--2------2s--14~--------|


Q. E H Q. E H Q. E H
------------------------|------------------------|------------------------|
------------------------|------------------------|------------------------|
------------------------|------------------------|------------------------|
------------------------|------------------------|------------------------|
------------------------|------------------------|------------------------|
--3------3s--15~--------|--0------1s--12~--------|--1------1s--13~--------|


Q. E H Q. E H
------------------------|------------------------|
------------------------|------------------------|
------------------------|------------------------|
------------------------|------------------------|
------------------------|------------------------|
--2------2s--14~--------|--3------3s--15~--------|


E E S E. S E. S S E
--------12--12---------12-----------12----------------|
------------------------------------------------------|
-----14g14-----14g14------14g14pb----Lpb-14g14-14g14--|
------------------------------------------------------|
------------------------------------------------------|
------------------------------------------------------|


E E E E E Q E E Q. Q S E.
-----12-----12-----12--12---------12------L--|------------------------------|
---------------------------------------------|------------------------------|
--14g14--14g14--14g14--12--14g14--14b-----L--|-----12-----------------------|
---------------------------------------------|-----12------14~-----L~-12b---|
---------------------------------------------|------------------------------|
---------------------------------------------|------------------------------|


Q Q E E E. S
------------------------------------|
------------------------------------|
--------12/----<>12-----------------|
---L----12/----------14~---L~----L/-|
------------------------------------|
------------------------------------|


E E E E Q E E
-----12---L--12-----12------15-------15-----|
--0--12-------------------------------------|
-----------------14g14pb-----Lpb--14g14pbr--|
--------------------------------------------|
--------------------------------------------|
--------------------------------------------|


E E Q Q Q
-------------12-------12-----------|
-----------------------------------|
--14--12--14g14----14g14----12----|
-----------------------------------|
-----------------------------------|
-----------------------------------|


|--6--| |--6--| |-----7----| 7 7 ---|--6--| 6 6
S S S S S S S S S S S S S S S S S S S T T T T T T T T
------------------------------------------------------------------------------|
--0h-4p-0-8p-5p-0-9p-6p-0-9p-6p-0-9p-7p-0-10p-7p-0-11p-8p-0-11p-8p-0-12p-9p-0-|
------------------------------------------------------------------------------|
------------------------------------------------------------------------------|
------------------------------------------------------------------------------|
------------------------------------------------------------------------------|


7 7 7 7 7 7 7 7 7 7 7 7 7 7 -- 3 3 |--3--|
S S S S S S S S S S S S S S S S S S S S S S S S
--------------------------------------------------------------------------------
--13p-10p-0-13p-11p-0-14p-11p-0-15p-12p-0-17p-13p-0-17-14-19p-15-20p-16-22-17-22
--------------------------------------------------------------------------------
--------------------------------------------------------------------------------
--------------------------------------------------------------------------------
--------------------------------------------------------------------------------


W
|-----3----|
E Q. E E E E E
--------------22g22pbr---L--22b---L--22--|
--17---L---------------------------------|
-----------------------------------------|
-----------------------------------------|
-----------------------------------------|
-----------------------------------------|


E E S S E Q E E
--22g22--22--22g22-22-22~---L----1s--12--|
-----------------------------------------|
-----------------------------------------|
-----------------------------------------|
-----------------------------------------|
-----------------------------------------|


E Q. Q S T T S S
--0--17g17------17g17pb-----Lpbr--Lp-15-------|
----------------------------------------15-17-|
----------------------------------------------|
----------------------------------------------|
----------------------------------------------|
----------------------------------------------|


PM PM
|---3---| |---3--| |---3--|
E E E S S S S S S S S S S S S E
------15------------------------------------------------------|
--15--15------------------12-15p-12----12h-15-15p-12-15b--L~--|
----------14-----12-14g14-----------14------------------------|
--------------15----------------------------------------------|
--------------------------------------------------------------|
--------------------------------------------------------------|


|---3---|
E. S E E E S S T T T T S S S S
--------12--L--------------------------------------------|
---L~----------15--14--12-15-14p-12h-15p-12s-10-10-10-11-|
---------------------------------------------------------|
---------------------------------------------------------|
---------------------------------------------------------|
---------------------------------------------------------|


S S S S S T T T S T S T T S T T S S E
-----------------------------------------------------|
---L-10-8---10-8h-10p-8s-7-7h-8-8p-7s-5-7p-5s-3---3--|
----------9-------------------------------------4----|
-----------------------------------------------------|
-----------------------------------------------------|
-----------------------------------------------------|


E E E E E E E E E E E E E E E E
---------------------------|--------------------------|
---------------------------|--------------------------|
---------------------------|--------------------------|
--9--9--9--9--9--9--9--9S--|--5--5--5--7--7--7--7--7--|
--9--9--9--9--9--9--9--9S--|--5--5--5--7--7--7--7--7--|
--7--7--7--7--7--7--7--7S--|--3--3--3--5--5--5--5--5--|


E E E E E E E E E E E E E E E E
---------------------------|--------------------------|
---------------------------|--------------------------|
---------------------------|--------------------------|
--9--9--9--9--9--9--9--9S--|--5--5--5--7--7--7--7--7--|
--9--9--9--9--9--9--9--9S--|--5--5--5--7--7--7--7--7--|
--7--7--7--7--7--7--7--7S--|--3--3--3--5--5--5--5--5--|


E E E E E E E E E E E E E E E E Q. E Q Q
---------------------------|--------------------------|----------------------|
---------------------------|--------------------------|----------------------|
---------------------------|--------------------------|----------------------|
--9--9--9--9--9--9--9--9S--|--5--5--5--7--7--7--7--7--|--9------8--L----7----|
--9--9--9--9--9--9--9--9S--|--5--5--5--7--7--7--7--7--|--9------8--L----7----|
--7--7--7--7--7--7--7--7S--|--3--3--3--5--5--5--5--5--|--7------6--L----5----|


TP TP
E Q. Q Q W W
----------------------|-------------------|-------------------|
----------------------|-------------------|-------------------|
----------------------|-------------------|-------------------|
--L--6------5----4----|--3----------------|--3----------------|
--L--6------5----4----|--3----------------|--3----------------|
--L--4------3----2----|--1----------------|--1----------------|


TP TP TP TP
W W W W
-------------------|-------------------|-------------------|-------------------|
-------------------|-------------------|-------------------|-------------------|
-------------------|-------------------|-------------------|-------------------|
--4----------------|--4----------------|--5----------------|--5----------------|
--4----------------|--4----------------|--5----------------|--5----------------|
--2----------------|--2----------------|--3----------------|--3----------------|


TP TP TP TP
W W W W
-------------------|-------------------|-------------------|-------------------|
-------------------|-------------------|-------------------|-------------------|
-------------------|-------------------|-------------------|-------------------|
--6----------------|--6----------------|--7----------------|--7----------------|
--6----------------|--6----------------|--7----------------|--7----------------|
--4----------------|--4----------------|--5----------------|--5----------------|


TP TP TP TP
W W W W
-------------------|-------------------|-------------------|-------------------|
-------------------|-------------------|-------------------|-------------------|
-------------------|-------------------|-------------------|-------------------|
--8----------------|--8----------------|--8----------------|--8----------------|
--8----------------|--8----------------|--8----------------|--8----------------|
--6----------------|--6----------------|--6----------------|--6----------------|


W E E E E E Q E E E E E E E Q
-------------------|-------------------------|--------------------------|
-------------------|-------------------------|--------------------------|
-------------------|-----7--9-------------7--|--L--9--9--7--9--L-------|
-------------------|-----7--9-------------7--|--L--9--9--7--9--L-------|
-------------------|-----5--7-------------5--|--L--7--7--5--7--L-------|
-------------------|-----------0--3--0-------|--------------------------|


E E E E E Q E E E E E E E Q E E E E E Q E
-------------------------|--------------------------|-------------------------|
-------------------------|--------------------------|-------------------------|
-----7--9-------------7--|--L--9--9--7--9--L-------|-----7--9-------------7--|
-----7--9-------------7--|--L--9--9--7--9--L-------|-----7--9-------------7--|
-----5--7-------------5--|--L--7--7--5--7--L-------|-----5--7-------------5--|
-----------0--3--0-------|--------------------------|-----------0--3--0-------|


E E E E E Q. E E E E E Q E E E E E Q Q
-------------------------|-------------------------|-------------------------|
-------------------------|-------------------------|-------------------------|
--L--9--9--7--9----------|----------------------7--|--L--9--9--7--9---------|
--L--9--9--7--9--5~------|--0--0--2-------------7--|--L--9--9--7--9---------|
--L--7--7--5--7----------|--0--0--2-------------5--|--L--7--7--5--7---------|
-------------------------|--------0--0--3--0-------|-------------------------|


E E E E E Q E E E E E E E Q E E E E E Q E
-------------------------|--------------------------|-------------------------|
-------------------------|--------------------------|-------------------------|
-----7--9-------------7--|--L--9--9--7--9--L-------|-----7--9-------------7--|
-----7--9-------------7--|--L--9--9--7--9--L-------|-----7--9-------------7--|
-----5--7-------------5--|--L--7--7--5--7--L-------|-----5--7-------------5--|
-----------0--3--0-------|--------------------------|-----------0--3--0-------|


E E E E E E Q E E E E E Q E E E E E E Q.
--------------------------|-------------------------|-------------------------|
--------------------------|-------------------------|-------------------------|
--L--9--9--7--9--L-------|-----7--9-------------7--|--L--9--9--7--9----------|
--L--9--9--7--9--L-------|-----7--9-------------7--|--L--9--9--7--9--5~------|
--L--7--7--5--7--L-------|-----5--7-------------5--|--L--7--7--5--7----------|
--------------------------|-----------0--3--0-------|-------------------------|


E E E E E Q E E E E E Q Q
-------------------------|-------------------------|
-------------------------|-------------------------|
----------------------7--|--L--9--9--7--9---------|
--0--0--2-------------7--|--L--9--9--7--9---------|
--0--0--2-------------5--|--L--7--7--5--7---------|
--------0--0--3--0-------|-------------------------|


E E E E E E E E E E E E E E E E
----------------------------------|--------------------------|
----------------------------------|--------------------------|
----------------------------------|--------------------------|
--10--10--10--10--10--10--10--10--|--9--9--9--9--9--9--9--9--|
--10--10--10--10--10--10--10--10--|--9--9--9--9--9--9--9--9--|
---8---8---8---8---8---8---8---8--|--7--7--7--7--7--7--7--7--|


E E E E Q Q E E E E E E Q W
------------------------|------------------------------|-------------------|
------------------------|------------------------------|-------------------|
------------------------|------------------------------|-------------------|
--7--7--7--7--7----7----|------------------------------|-------------------|
--7--7--7--7--7----7----|------------------------------|-------------------|
--5--5--5--5--5----5----|--5--3--5--5g5pbr--L--3--0----|--L----------------|


W W W W
-------------------|-------------------|-------------------|-------------------|
-------------------|-------------------|-------------------|-------------------|
-------------------|-------------------|-------------------|-------------------|
-------------------|-------------------|-------------------|-------------------|
-------------------|-------------------|-------------------|-------------------|
--L----------------|--L----------------|--L----------------|-------------------|


W
-------------------||
-------------------||
-------------------||
-------------------||
-------------------||
-------------------||










Guitar # 3:


W W W
E||--------------------|-------------------|-------------------|
B||--------------------|-------------------|-------------------|
G||*-------------------|-------------------|-------------------|
D||*-------------------|-------------------|-------------------|
A||--------------------|-------------------|-------------------|
E||--------------------|-------------------|-------------------|


W W W
--------------------||-------------------|-------------------|
--------------------||-------------------|-------------------|
-------------------*||-------------------|-------------------|
-------------------*||-------------------|-------------------|
--------------------||-------------------|-------------------|
--------------------||-------------------|-------------------|


W W W W
-------------------|-------------------|-------------------|-------------------|
-------------------|-------------------|-------------------|-------------------|
-------------------|-------------------|-------------------|-------------------|
-------------------|-------------------|-------------------|-------------------|
-------------------|-------------------|-------------------|-------------------|
-------------------|-------------------|-------------------|-------------------|


W W W W
-------------------|-------------------|-------------------|-------------------|
-------------------|-------------------|-------------------|-------

-----------------------------
|  акорди, навчання, відео  |
|     http://akords.org     |
-----------------------------

 (голосів: 0)
   Інші пісні:
  • Fever
  • In The Flesh
  • Spoilin For A Fight
  • Taxman
  • Am I Going Insane
  •  
    Шановний відвідувач, Ви зайшли на сайт як незареєстрований користувач. Ми рекомендуємо Вам реєструватися або зайти на сайт під своїм ім'ям.

    Додавання коментаря

    Ім'я:*
    E-Mail:*
    Коментар:
    Введіть два слова, показані на зображенні: *
     
      

    BLIBL-створити сайт безкоштовно