Зробити стартовою  |  Додати в вибране
 
Пошук по сайту:  
  логін: пароль:  
    Реєстрація на сайті   Нагадати пароль?    
Монолитный поликарбонат оптом в москве spkpro.ru.

Видавництво Симфонія | Книжкова фабрика

akords.org » A » Aerosmith » Fine
Знайти необхідні акорди

Aerosmith - Fine  табулатура

Band: Aerosmith
Song: F.I.N.E.


Gtr I (A A E A C# E) - 'Joe Perry'
Gtr II (E A D G B E) - 'Brad Whitford'
Gtr III (A A E A C# E) - 'Untitled'


Intro
Moderately Q=130
N.C.
4/4
Gtr I
E E E E E E E E
|------------------------------------------|
|------------------------------------------|
|------------------------------------------|
|------------------------------------------|
|------------------------------------------|
|-3-3-3-3pb3.5==3pb3.5==3pb3.5r3pb4==3pb4==|


E E E E E E E E
|-----------------------------------------------------||
|-----------------------------------------------------||
|-----------------------------------------------------||
|-----------------------------------------------------||
|-----------------------------------------------------||
|-3pb4r3pb4.5==3pb4.5==3pb4.5r3pb5-3pb5.5-3pb6-3pb6.5-||


Verse
$
A5 G5/A A5 F#m/A E5/A A5 G5/A A5 F#m/A
Gtr I
Q E E Q E E E E E E E E E E Q E E Q E E
||--------------------|---------------------|--------------------|
||o-------------------|-------------------0-|--------------------|
||--------------------|-------------------0-|--------------------|
||-----10---12---9-10-|-----7-9-----5-7-3-0-|----10---12---9-10--|
||o----10---12---9-10-|-----7-9-----5-7-3-0-|----10---12---9-10--|
||--0--10---12---9-10s|=(9)-7-9s(7)-5-7-3---|-0--10---12---9-10s=|
|
| Gtr II
| Q q E E E E +E E E E E E E E Q q E E E E
||--------------------|---------------------|--------------------|
||o-------------------|---------------------|--------------------|
||------7----9-9-6--7-|-----4-6-----------2-|-2---7----9-9-6--7--|
||--2---5----7-7-4--5-|-----2-4-----------2-|-2---5----7-7-4--5--|
||o-0---0----0-0-0--0-|-(0)-0-0-----5p0-3-0-|-0---0----0-0-0--0--|
||--------------------|---------------------|--------------------|


E5/A A5 G5/A A5 F#m/A E5/A
E E E E E E E E Q E E Q E E E E E E E E E E
|---------------------|---------------------|---------------------|
|---------------------|---------------------|---------------------|
|-------------------0-|-(0)-----------------|---------------------|
|-----7-9-----5-7---0-|-(0)--10---12---x-10-|-----7-9-----5-----0-|
|-----7-9-----5-7-3-0-|-(0)--10---12---x-10-|-----7-9-----5---3-0-|
|-(9)-7-9s(7)-5-7-3---|--0---10---12---x-10s|=(9)-7-9s(7)-5-7-3-0-|
|
| +E E E E E E E E Q q E E E E +E E E E E E E E
|---------------------|---------------------|---------------------|
|---------------------|---------------------|---------------------|
|-----4-6-----------2-|--2----7----9-9-6--7-|-----4-6---------0-0-|
|-----2-4-----------2-|--2----5----7-7-4--5-|-----2-4---------x---|
|-(0)-0-0-----5p0-3-0-|--0----0----0-0-0--0-|-(0)-0-0-----5p0-3---|
|---------------------|---------------------|---------------------|


D5 C G5/D C#D5D#E5 A5 G5/A A5 F#m/A
Q E E E E E S S Q Q E E E E Q E E Q E E
|--------------------|---------------------|--------------------|
|--------------------|---------------------|--------------------|
|----5-5---5---------|---------------------|--------------------|
|----5-5-5-----10-10-|-10----10-----------|----10---12---9-10--|
|-5--5---5-----10-10-|-10----10---4-5-6-7-|-0--10---12---9-10--|
|-5--5-------5s10-10-|-10----10---4-5-6-7-|-0--10---12---9-10s=|
|
| Q Q E E E E +E E E E E E E E Q E E E E E E
|---------------3----|-(3)----3------------|--------------------|
|----3---3-3----2----|-(2)----3------------|--------------------|
|----2---2-2----0----|-(0)----0------------|-----7----9-9-6--7--|
|-0--0---0-0---------|--------0----6-7-8-9-|-2---5----7-7-4--5--|
|--------------------|-------------4-5-6-7-|-0---0-0--0-0-0--0--|
|--------------------|-----3---------------|--------------------|


E5/A A5 G5/A A5 F#m/A E5/A A/E
E E E E E E E E Q E E Q E E E E E E E E E E
|---------------------|---------------------|---------------------|
|---------------------|---------------------|---------------------|
|---------------------|---------------------|---------------------|
|-----7-9-----------0-|-(0)--10---12---9-10-|-----7-9-----5-----0-|
|-----7-9-----5-7-3-0-|-(0)--10---12---9-10-|-----7-9-----5-7-3-0-|
|-(9)-7-9s(7)-5-7-3-0-|--0---10---12---9-10s|=(9)-7-9s(7)-5-7-3-0-|
|
| +E E E E E E E E Q q E E E E +E E Q E E E E
|---------------------|---------------------|---------------------|
|---------------------|---------------------|-------------------2-|
|-----4-6-----------2-|--2----7----9-9-6--7-|-----4-6-----------2-|
|-----2-4-----------2-|--2----5----7-7-4--5-|-----2-4-----------2-|
|-(0)-0-0-----5p0-3-0-|--0----0----0-0-0--0-|-(0)-0-0-----5p0-3---|
|---------------------|---------------------|---------------------|


A5 G5/A A5 F#m/A E5/A D5 C
Q E E Q E E E E E E E E E E Q E E E E E S S
|---------------------|---------------------|---------------------|
|---------------------|---------------------|---------------------|
|---------------------|-------------------0-|----5-5---5----------|
|-(0)--10---12---9-10-|-----7-9-----5-----0-|----5-5---5----10-10-|
|-(0)--10---12---9-10-|-----7-9-----5-7-3-0-|-5----5--------10-10-|
|--0---10---12---9-10s|=(9)-7-9s(7)-5-7-3---|-5----5-5---5/-10-10-|
|
| Q q E E E E +E E Q E E E E Q Q E E E E
|---------------------|---------------------|----------------3----|
|---------------------|---------------------|----3---3-3-----2----|
|--2----7----9-9-6--7-|-----4-6-------------|----2---2-2-----0----|
|--2----5----7-7-4--5-|-----2-4-------------|-0--0---0-0----------|
|--0----0----0-0-0--0-|-(0)-0-0-----5p0-3-0-|---------------------|
|---------------------|---------------------|---------------------|


Pre-Chorus
To Coda
G5/D C#D5D#E5 A5
Q Q E E E E E E E E E E E E E E E E Q E E
|---------------------||---------------------------|---------------------|
|---------------------||----3----------------------|--3--3--------3----2-|
|---------------------||----3b3.5-0----3--3pb4-0---|--3--3pb4-0---0----0-|
|-10----10-----------||------------0------------0-|------------3--------|
|-10----10---4-5-6-7-||-0-------------------------|---------------------|
|-10----10---4-5-6-7-||-0-------------------------|---------------------|
|
| +E E E E E E E E W H. Q
|-(3)----3------------||---------------------------|---------------------|
|-(2)----3------------||---------------------------|---------------------|
|-(0)----0------------||---------------------------|---------------------|
|--------0----6-7-8-9-||-2-------------------------|--2------------------|
|-------------4-5-6-7-||-0----------0-(0)----------|-(0)-----------------|
|-----3---------------||---------------------------|---------------------|
Q. E +H +W


F#m6 Dm/F
+E E E E E E E E H. E E +E E E E E E E E
|-----------------------------|------------^1-|-(1)-------------------------|
|-(2)----------2-----2----2-2-|--2---------^1-|-(1)---------------------1---|
|-(0)-3pb4-0---3b3.5-3pb4-0---|--0---------^0-|-(0)-3pb4-0---3b3.5-3pb4-0---|
|------------0----------------|---------------|------------0--------------3-|
|-----------------------------|---------------|-----------------------------|
|-----------------------------|---------------|-----------------------------|
|
| W +H. Q W
|-----------------------------|---------------|-----------------------------|
|--4--------------------------|-(4)-----------|--3--------------------------|
|--2--------------------------|-(2)-----------|--2--------------------------|
|--4--------------------------|-(4)-----------|--3--------------------------|
|-----------------------------|---------------|-----------------------------|
|-----------------------------|---------------|-----------------------------|


C5
E E E E E E Q E E E E E E Q E E E E E E Q
|-----------------1--------|----------------|-----------------|
|-----------------1--------|----------------|-----------------|
|--3b3.5-3pb4-0---0--------|---0-0---0-0----|---0-0---0-0-----|
|---------------3----------|-3-0-0-3-0-0----|---0-0---0-0-----|
|--------------------------|-3-0-0-3-0-0-3--|-3-0-0-3-0-0-3p==|
|---------------------12--|-3-0-0-3-0-0-3--|-3-0-0-3-0-0-3p==|
|
| ~~
| +H. Q E E E E E E Q E E E E E E Q
|--------------------------|----------------|-----------------|
|-(3)----------------------|----------------|-----------------|
|-(2)----------------------|----------------|-----------------|
|-(3)----------------------|-5-----5-----5--|-5-----5-----5---|
|--------------------------|-3p0-0-3p0-0-3--|-3p0-0-3p0-0-3---|
|--------------------------|----------------|-----------------|


A5 F#m6
E E E E E E E E E E E E Q E E
|---------------------------|---------------------------|
|---------------------------|--3-----3----3---3------^2-|
|---3pb4-0---3b3.5-3pb4-0---|--3b3.5-3pb4-0---0------^0-|
|----------0--------------0-|---------------3-----------|
|-0-------------------------|---------------------------|
|-0-------------------------|---------------------------|
|
| W +H. +E E
|---------------------------|---------------------------|
|---------------------------|-------------------------4-|
|---------------------------|-------------------------2-|
|-2-------------------------|-(2)---------------------4-|
|-0-------------------------|-(0)----------------(0)----|
|---------------------------|---------------------------|


+E E E E E E E E
|------------------------------|
|-(2)-2---------2-----2----2---|
|-(0)-3b3.5-0---3b3.5-3pb4-0---|
|-------------0--------------3-|
|------------------------------|
|------------------------------|
|
| +W
|------------------------------|
|-(4)--------------------------|
|-(2)--------------------------|
|-(4)--------------------------|
|------------------------------|
|------------------------------|


Dm/F
H. +E E E E E E E E E E E E E E H
|----------------|----------------------------|--------------------------|
|--2-------(2)---|-1-----------------1----1---|--1-----1----1---1--------|
|--0-------(0)---|-0-3b3.5-0---3b3.5-3pb4-0---|--3b3.5-3pb4-0---0--------|
|----------------|-----------0--------------3-|---------------3----------|
|----------------|----------------------------|--------------------------|
|----------------|----------------------------|--------------------------|
|
| +H. Q W +H. +E E
|----------------|----------------------------|--------------------------|
|-(4)------------|-3--------------------------|-(3)----------------(3)---|
|-(2)------------|-2--------------------------|-(2)----------------(2)---|
|-(4)------------|-3--------------------------|-(3)----------------(3)---|
|----------------|----------------------------|--------------------------|
|----------------|----------------------------|--------------------------|


Chorus
C5 C#5 D5 D#E5 A5
E E E E E E E E E E E E E E E E H E E E E
|-----------------|-----------------||-----------------|
|-----------------|-----------------||-----------------|
|---0-0---0-------|-----------------||-----------------|
|-3-0-0---0-0-3---|-----------------||-7-----7-7s12-12-|
|-3-0-0-3-0-0-3p==|=3-0-4-0-5-0-6-7-||-7-----7-7s12-12-|
|-3-0-0-3---0-3p==|=3-0-4-0-5-0-6-7-||-7-----7-7s12-12-|
|
| E E E E E E Q E E E E E E E E Q Q E E E E
|-----------------|-----------------||-----------------|
|-----------------|-----------------||-----------------|

|-----------------|-----------------||-----------------|
|-5-----5-----5---|-5---6---7---8s9-||-9--9--9-9s14-14-|
|-3p0-0-3p0-0-3---|-3p0-4p0-5p0-6s7-||-7--7--7-7s12-12-|
|-----------------|-----------------||-----------------|


C#5 D5 E5D5 G5 C#5 D5 D#E5
+E E E E E E E E Q Q E E E E +e E E E E E E E
|--------------------|-----------------|--------------------|
|--------------------|-----------------|--------------------|
|--------------------|-----------------|--------------0-----|
|-(12)------------5-|-5--5--5-5s10-10-|-(10)-------5-0-6-7-|
|-(12)�-4-0-5-0-7-5-|-5--5--5-5s10-10-|-(10)-0-4-0-5---6-7-|
|-(12)�-4-0-5-0-7-5-|-5-----5-5s10-10-|-(10)-0-4-0-5---6-7-|
|
| +E E E E E E E E Q Q E E E E +E E E E E E E E
|--------------------|-----------------|--------------------|
|--------------------|-----------------|--------------------|
|--------------------|-----------------|--------------------|
|-(14)---6---7---9s7-|-7--7--7-7s12-12-|--------6---7---8s9-|
|-(12)p0-4p0-5p0-7s5-|-5--5--5-5s10-10-|-(10)p0-4p0-5p0-6s7-|
|--------------------|-----------------|--------------------|


E5 A5 C#5 D5 E5D5
Q Q E E E E +E E E E E E E E
|-----------------|--------------------|
|-----------------|--------------------|
|-----------------|--------------0-----|
|-7--7--7-7s12-12-|-(12)--------0---5-|
|-7--7--7-7s12-12-|-(12)�-4-0-5---7-5-|
|-7--7--7-7s12-12-|-(12)�-4-0-5---7-5-|
|
| Q Q E E E E +E E E E E E E E
|-----------------|--------------------|
|-----------------|--------------------|
|-----------------|--------------------|
|-9--9--9-9s14-14-|--------6---7---9s7-|
|-7--7--7-7s12-12-|-(12)p0-4p0-5p0-7s5-|
|-----------------|--------------------|


1.
D5 G5
Gtr III
W W
|----------------|------------------------||
|----------------|-----------------------o||
|----------------|------------------------||
|----------------|------------------------||
|----------------|-----------------------o||
|----------------|------------------------||
|
| Gtr I
| Q Q E E E E e E Q e E E E
|----------------|------------------------||
|----------------|-----------------------o||
|-------------10-|-----------10-10-10-10--||
|-5-----5-5-x-10-|----10-10--10-10-10-10--||
|-5--5--5-5-x----|-10-10-10--10-10-10----o||
|-5--5--5-5-x----|-10-10-10--10-10-10-----||
|
| Gtr II
| Q Q E E E E E E Q e E E E
|----------------|------------------------||
|----------------|-----------------------o||
|----------------|------------------------||
|-7--7--7-7---12-|-12-12-12--12-12-12-12--||
|-5--5--5-5---10-|-10-10-10--10-10-10-10-o||
|----------------|------------------------||


2.
D5 A5 E5
W H Q E E
|-----------------|--------------------2s==||
|-----------------|--------------------2s==||
|-----------------|--------------------2s==||
|-----------------|--------------------2s==||
|-----------------|------------------------||
|-----------------|------------------------||
|
| Q Q E E E E e E Q e E E E
|-----------------|------------------------||
|-----------------|------------------------||
|-----------------|------------------------||
|-5--5----5-------|-------10--10-10-10-----||
|-5--5--5-5-------|-10----10--10-10-10-----||
|-5--5--5-5-5/-10-|-10-10-10--10-10-10-----||
|
| Q Q E E E E E E Q Q E E
|-----------------|------------------------||
|-----------------|------------------------||
|-----------------|------------------------||
|-7--7--7-7----14-|-14-14-14--14s====9-9---||
|-5--5--5-5----12-|-12-12-12--12s====7-7---||
|-----------------|------------------------||


Bridge
E5 B5
H. +E E E Q +E Q E. S
|-7----------(7)---|-----7---(7)-------------|
|-7----------(7)-6s|==7--------------------1s=|
|-7----------(7)---|-----------------------1s=|
|-7----------(7)---|--------------------------|
|------------------|--------------------------|
|------------------|--------------------------|
|
| Q Q E E E E +E E Q E E E E
|------------------|--------------------------|
|------------------|--------------------------|
|------------------|--------------------------|
|-7---7--7-7--7--7-|-(7)-7-7------7-7----2----|
|-7---7--7-7--7--7-|-(7)-7-7------7-7----2----|
|-7---7--7-7--7--7-|-(7)---7------7-7----2----|
|
| Q Q E Q E E E Q E E E E
|------------------|--------------------------|
|------------------|--------------------------|
|------------------|--------------------------|
|-9---9--9-9-----9-|--9--9-9------9-9---------|
|-7---7--7-7-----7-|--7--7-7------7-7----9----|
|------------------|---------------------7----|


B5 F#5 C#5
~~
H +H H. +e E E E +H.
|--------------------|-9----------(9)-----|----4-(4)---------------|
|-2------(2)/--------|-9----------(9)--2s|==4---------------------|
|-2------(2)/--------|-9----------(9)--2s|==4---------------------|
|--------------------|--------------------|------------------------|
|--------------------|--------------------|------------------------|
|--------------------|--------------------|------------------------|
|
| Q E E E Q E Q Q E E E E Q Q E E E S S
|--------------------|--------------------|------------------------|
|--------------------|--------------------|------------------------|
|--------------------|--------------------|------------------------|
|-2--2-2--2---2/---9-|-9---9--9-9-------4-|--4----4----4--4----4-4-|
|-2--2-2--2---2/---9-|-9---9--9-9-------4-|--4----4----4--4----4-4-|
|-2--2----2---2/---9-|-9---9--9-9-------4-|--4----4----4--4-4--4-4-|
|
| Q E E Q E E Q Q E E E E Q Q E Q E
|--------------------|--------------------|------------------------|
|----7---------------|--------------------|------------------------|
|--------------------|--------------------|------------------------|
|--------------------|--------------------|------------------------|
|-9----9--9--------4-|-4---4--4-4------11-|-11---11---11-11---11---|
|-7----7--7--------2-|-2---2--2-2-------9-|--9----9----9--9----9---|


C#5 G#5
~~~~~~~~~~
+E E E a E E E E E E Q E E Q.
|-(4)-4s=3-----------------|----11----------(11)-------|
|----------3s4-----4-------|----------10s11------------|
|---------------4--------6s|=11--------------11--------|
|--------------------------|---------------------------|
|--------------------------|---------------------------|
|--------------------------|---------------------------|
|
| E E Q E Q E E E Q E E E E
|--------------------------|---------------------------|
|--------------------------|---------------------------|
|--------------------------|---------------------------|
|--4--4--4------4--4/---11-|-11----11----11--11--11-11-|
|--4--4--4------4--4/---11-|-11----11----11--11--11-11-|
|--4--4--4------4--4/---11-|-11-11-------11--11--11-11-|
|
| Q Q E E E E Q Q E Q E
|--------------------------|---------------------------|
|--------------------------|---------------------------|
|--------------------------|---------------------------|
|--------------------------|---------------------------|
|-11----11-----11-11-----6-|--6-----6-----6---6------6-|
|--9-----9------9--9-----4-|--4-----4-----4---4------4-|


~~~~~~
+H +Q E E
|-(11)--------(11)----------|
|-------------------------1s=|
|-(11)--------(11)-------1s=|
|----------------------------|
|----------------------------|
|----------------------------|
|
| +E E Q E Q.
|----------------------------|
|----------------------------|
|----------------------------|
|-(11)-11-11---11---11------|
|-(11)-11-11---11---11------|
|-(11)-11-11---11---11------|
|
| E E Q Q E E
|----------------------------|
|----------------------------|
|----------------------------|
|----------------------------|
|---6---6--6----6---------6--|
|---4---4--4----4---------4--|


B5 F#5 C#5
H. E E H. E E E E Q Q E E
|----------------|----------------6s==|=9---9--9---------|
|-2------------1s|=2--------------6s==|=9-9---------------|
|-2------------1s|=2--------------6s==|=9--------------2s=|
|----------------|--------------------|-------------------|
|----------------|--------------------|-------------------|
|----------------|--------------------|-------------------|
|
| Q Q E E E E Q Q E Q S S Q Q E E E E
|----------------|--------------------|-------------------|
|----------------|--------------------|-------------------|
|----------------|--------------------|-------------------|
|-2---2--2-2---2-|-2----2--2-2/---9-9-|-9---9--9--9----4--|
|-2---2--2-2---2-|-2----2--2-2/---9-9-|-9---9--9--9----4--|
|-2---2--2-2---2-|-2----2--2-2/---9-9-|-9---9--9--9----4--|
|
| Q Q E E E E E E Q E E E E Q Q E E E E
|----------------|--------------------|-------------------|
|----------------|--------------------|-------------------|
|----------------|--------------------|-------------------|
|----------------|--------------------|-------------------|
|-9---9--9-9---9-|-9--9-9--9-9----4---|-4---4--4--4---11--|
|-7---7--7-7---7-|-7--7-7--7-7----2---|-2---2--2--2----9--|


C#5 G#5
E Q. +Q E E Q E E Q E E
|----4------(4)----------|-----11----------------|
|----4------(4)----------|--------11-------11-11-|
|--4-------------------4s|=11--------11----------|
|----------------------4s|=11--------------------|
|------------------------|-----------------------|
|------------------------|-----------------------|
|
| E E Q E Q E Q Q E E E E
|------------------------|-----------------------|
|------------------------|-----------------------|
|------------------------|-----------------------|
|--4-4---4---4---4/---11-|-11--11----11-11--x-11-|
|--4-4---4---4---4/---11-|-11--11----11-11--x-11-|
|--4-----4---4---4/---11-|-11--11----11-11--x-11-|
|
| Q Q E E E E Q Q E Q E
|------------------------|-----------------------|
|------------------------|-----------------------|
|------------------------|-----------------------|
|------------------------|-----------------------|
|-11----11--11--11-----6-|--6---6-----6--6-----6-|
|--9-----9---9---9-----4-|--4---4-----4--4-----4-|


A5
Q a E a E Q. E
|-11----11s=9------11----------|
|-------------9s11---------11s=|
|------------------------------|
|------------------------------|
|------------------------------|
|------------------------------|
|
| E E Q E Q E
|------------------------------|
|------------------------------|
|------------------------------|
|-11-------11------11--11------|
|-11-------11------11--11------|
|-11-11----11------11--11--11--|
|
| E E Q E Q E
|------------------------------|
|------------------------------|
|------------------------------|
|------------------------------|
|--6--6-----6-------6---6---7--|
|--4--4-----4-------4---4---5--|


A5 B5
E Q. +Q. E
|----12------(12)--------|
|-12---------------------|
|---------------------12s|
|------------------------|
|------------------------|
|------------------------|
|
| Q Q E Q E
|------------------------|
|------------------------|
|------------------------|
|-12-----12---12--12--14-|
|-12-----12---12--12--14-|
|-12-----12---12--12--14-|
|
| Q Q E Q E
|------------------------|
|------------------------|
|------------------------|
|------------------------|
|--7------7----7---7---9-|
|--5------5----5---5---7-|


A5
E Q. +Q a E E a W
|-----14------(14)----13s14----|----------------------|
|-----14------(14)----13s14----|-10s12----------------|
|-14-(14)-----(14)----13s14----|-10s12----------------|
|-------------------------------|-10s12----------------|
|-------------------------------|----------------------|
|-------------------------------|----------------------|
|
| E E Q Q Q Q E E Q E E
|-------------------------------|----------------------|
|-------------------------------|--------10---12--9-10-|
|-------------------------------|--------10---12--9-10-|
|-14--14--14---14---------14---|--------10---12--9-10-|
|-14--14--14---14---------14---|-----0----------------|
|-14--14--14---14---------14---|-----0----------------|
|
| E E Q E Q. W
|-------------------------------|----------------------|
|-------------------------------|----------------------|
|-------------------------------|----------------------|
|-------------------------------|-----2----------------|
|--9---9---9----9---9----------|-----0----------------|
|--7---7---7----7---7----------|----------------------|


A5
~~~~~~~~~~~~~~~~~~~~~~~~~
+H +E E a E a E +W
|---------------------------------|---------------------|
|-(12)---------(12)---10s12-11s12-|-(12)----------------|
|-(12)---------(12)---10s12-11s12-|-(12)----------------|
|-(12)---------(12)---10s12-11s12-|-(12)----------------|
|---------------------------------|---------------------|
|---------------------------------|---------------------|
|
| E E E E E E E E +Q E E Q E E
|---------------------------------|---------------------|
|---------------------------------|---------------------|
|------7-9-------5----------------|---------------------|
|------7-9-------5----------------|-------10---12--9-10-|
|------7-9s(7)---5--7-----3-----0-|--(0)--10---12--9-10-|
|-------------------7-----3-----0-|--(0)--10---12--9-10s|
|
| +H. E E +W
|---------------------------------|---------------------|
|---------------------------------|---------------------|
|---------------------------------|---------------------|
|--(2)--------------------2-----2-|--(2)----------------|
|--(0)--------------------0-----0-|--(0)----------------|
|---------------------------------|---------------------|


~~~~~~
+H +E E a E a E
|-----------------------------------|
|-(12)---------(12)s10-10s12s11s12--|
|-(12)---------(12)s10-10s12s11s12--|
|-(12)---------(12)s10-10s12s11s12--|
|-----------------------------------|
|-----------------------------------|
|
| E E E E E E E E
|-----------------------------------|
|-----------------------------------|
|------7-9-------5------------------|
|------7-9-------5------------------|
|------7-9s(7)---5---7-----3-----0--|
|--(9)---------------7-----3-----0--|
|
| +H. E E
|-----------------------------------|
|-----------------------------------|
|-----------------------------------|
|--(2)---------------------2-----2--|
|--(0)---------------------0-----0--|
|-----------------------------------|


A5
+W +H Q a E a E
|----------------------|----------------------------|
|-(12)-----------------|-(12)-----------10s12s11s12-|
|-(12)-----------------|-(12)-----------10s12s11s12-|
|-(12)-----------------|-(12)-----------10s12s11s12-|
|----------------------|----------------------------|
|----------------------|----------------------------|
|
| +Q E E E E E E E E E E E E E E
|----------------------|----------------------------|
|----------------------|----------------------------|
|----------------------|----------------------------|
|-------10---12---9-10-|------7-9---5-7-----------0-|
|--(0)--10---12---9-10-|------7-9---5-7-----3-----0-|
|--(0)--10---12---9-10s|==(9)-7-9---5-7-----3-----0-|
|
| +W +H. E E
|----------------------|----------------------------|
|----------------------|----------------------------|
|----------------------|----------------------------|
|--(2)-----------------|--(2)---------------2-----2-|
|--(0)-----------------|--(0)---------------0-----0-|
|----------------------|----------------------------|


C#5 D5 D#E5
+W W
|----------------------|---------------------||
|-(12)----------------|--7-----------------||
|-(12)----------------|--7-----------------||
|-(12)----------------|--7-----------------||
|----------------------|---------------------||
|----------------------|---------------------||
|
| +Q E E Q E E E E E E E E E S S
|----------------------|---------------------||
|----------------------|---------------------||
|----------------------|---------------------||
|--(0)---10---12--9-10-|-----0-4-0-5-0-6-0-0-||
|--(0)---10---12--9-10-|-----0-4-0-5-0-6-0-0-||
|--(0)---10---12--9-10s|=(9)-0-4-0-5-0-6-0-0-||
|
| +W E E E E E E E E
|----------------------|---------------------||
|----------------------|---------------------||
|----------------------|---------------------||
|--(2)-----------------|--2----6---7---8-9---||
|--(0)-----------------|--0--0-4-0-5-0-6-7---||
|----------------------|---------------------||


Chorus 2
E5 A5 C#5 D5 E5D5 G5 C#5 D5 D#E5
Gtr I
H E E E E +E E E E E E E E Q Q E E E E +e E E E E E E E
|-----------------|--------------------|-----------------|---------------------|
|-----------------|--------------------|-----------------|---------------------|
|-----------------|--------------------|-----------------|--------------0------|
|-7-----7-7s12-12-|-(12)------------5-|-5--5--5-5s10-10-|-(10)-------5-0-6-7--|
|-7-----7-7s12-12-|-(12)�-4-0-5-0-7-5-|-5--5--5-5s10-10-|-(10)-0-4-0-5---6-7--|
|-7-----7-7s12-12-|-(12)�-4-0-5-0-7-5-|-5-----5-5s10-10-|-(10)-0-4-0-5---6-7--|
|
| Gtr II
| Q Q E E E E +E E E E E E E E Q Q E E E E +E E E E E E E E
|-----------------|--------------------|-----------------|---------------------|
|-----------------|--------------------|-----------------|---------------------|
|-----------------|--------------------|-----------------|---------------------|
|-9--9--9-9s14-14-|-(14)---6---7---9s7-|-7--7--7-7s12-12-|--------6---7---8s9--|
|-7--7--7-7s12-12-|-(12)p0-4p0-5p0-7s5-|-5--5--5-5s10-10-|-(10)p0-4p0-5p0-6s7--|
|-----------------|--------------------|-----------------|---------------------|


E5 A5 C#5 D5 E5D5
Q Q E E E E +E E E E E E E E
|-----------------|--------------------|
|-----------------|--------------------|
|-----------------|--------------0-----|
|-7--7--7-7s12-12-|-(12)--------0---5-|
|-7--7--7-7s12-12-|-(12)�-4-0-5---7-5-|
|-7--7--7-7s12-12-|-(12)�-4-0-5---7-5-|
|
| Q Q E E E E +E E E E E E E E
|-----------------|--------------------|
|-----------------|--------------------|
|-----------------|--------------------|
|-9--9--9-9s14-14-|--------6---7---9s7-|
|-7--7--7-7s12-12-|-(12)p0-4p0-5p0-7s5-|
|-----------------|--------------------|


D.S. al Coda
G5
Q Q E E E S S e E Q E E Q
|-------------------|------------------------||
|-------------------|------------------------||
|-------------------|------------------------||
|-5--5--5-5-x-10-10-|-10-10-10--10-10--------||
|-5--5--5-5-x-10-10-|-10-10-10--10-10--------||
|-5--5--5-5-x-10-10-|-10-10-10--10-10-10----||
|
| Q Q E E E E E E Q e E E E
|-------------------|------------------------||
|-------------------|------------------------||
|-------------------|------------------------||
|-7--7--7-7---12----|-12-12-12--12-12-12--12-||
|-5--5--5-5---10----|-10-10-10--10-10-10--10-||
|-------------------|------------------------||


Outro
&
A5
W +W +W
|----------|------------|--------|
|----------|------------|--------|
|-0--------|-(0)--------|-(0)----|
|-0--------|-(0)--------|-(0)----|
|-0--------|-(0)--------|-(0)----|
|-0--------|-(0)--------|-(0)----|
|
| W +W +W
|----------|------------|--------|
|----------|------------|--------|
|----------|------------|--------|
|-2--------|-(2)--------|-(2)----|
|-0--------|-(0)--------|-(0)----|
|----------|------------|--------|


>
+W +W W W
|------------|------------|------------|------*|
|------------|------------|------------|------*|
|-(0)--------|-(0)--------|------------|------*|
|-(0)--------|-(0)--------|------------|------*|
|-(0)--------|-(0)--------|------------|------*|
|-(0)--------|-(0)--------|------------|------*|
|
| >
| +W +W +W W
|------------|------------|------------|------*|
|------------|------------|------------|------*|
|------------|------------|------------|------*|
|-(2)--------|-(2)--------|-(2)--------|------*|
|-(0)--------|-(0)--------|-(0)--------|------*|
|------------|------------|------------|------*|




--------------------------------------------------------------------------------


Duration Legend
---------------
W - whole; H - half; Q - quarter; E - 8th; S - 16th; T - 32nd; X - 64th; a - acciaccatura
+ - note tied to previous; . - note dotted; .. - note double dotted
Uncapitalized letters represent notes that are staccato (1/2 duration)
Irregular groupings are notated above the duration line
Duration letters will always appear directly above the note/fret number it represents the
duration for. Duration letters with no fret number below them represent rests. Multi-
bar rests are notated in the form Wxn, where n is the number of bars to rest for. Low
melody durations appear below the staff

Tablature Legend
----------------
h - hammer-on
p - pull-off
b - bend
pb - pre-bend
r - bend release (if no number after the r, then release immediately)
/ - slide into or out of (from/to "nowhere")
s - legato slide
S - shift slide
- natural harmonic
[n] - artificial harmonic
n(n) - tapped harmonic
~ - vibrato
tr - trill
T - tap
TP - trem. picking
PM - palm muting
n/ - tremolo bar dip; n = amount to dip
n - tremolo bar down
n/ - tremolo bar up
/n - tremolo bar inverted dip
= - hold bend; also acts as connecting device for hammers/pulls
<> - volume swell (louder/softer)
x - on rhythm slash represents muted slash
o - on rhythm slash represents single note slash

Misc Legend
-----------
| - bar
|| - double bar
||o - repeat start
o|| - repeat end
*| - double bar (ending)
: - bar (freetime)
$ - Segno
& - Coda
Tempo markers - = BPM(8/16=s8/s16), where s8 = swing 8ths, s16 = swing 16ths

-----------------------------
|  акорди, навчання, відео  |
|     http://akords.org     |
-----------------------------

 (голосів: 0)
   Інші пісні:
  • Girl 2
  • The One Bass
  • Get Down Bass
  • Drowning Bass
  • Weve Got It Going On Bass 2
  •  
    Шановний відвідувач, Ви зайшли на сайт як незареєстрований користувач. Ми рекомендуємо Вам реєструватися або зайти на сайт під своїм ім'ям.

    Додавання коментаря

    Ім'я:*
    E-Mail:*
    Коментар:
    Введіть два слова, показані на зображенні: *
     
      

    BLIBL-створити сайт безкоштовно