Зробити стартовою  |  Додати в вибране
 
Пошук по сайту:  
  логін: пароль:  
    Реєстрація на сайті   Нагадати пароль?    

Видавництво Симфонія | Книжкова фабрика

akords.org » A » Aerosmith » Drop Dead Gorgous
Знайти необхідні акорди

Aerosmith - Drop Dead Gorgous  табулатура

By: Aerosmith
Album: Just Push Play

This is the main riff during the chorus:

e|---------------------------------
B|---------------------------------
G|-------------------------9-7—9---
D|------------------3-4----9—7-9---
A|---7-------3-4-5---------7—5-7---
E|-----3-4-5-----------------------

-----------------------------
|  акорди, навчання, відео  |
|     http://akords.org     |
-----------------------------

 (голосів: 0)
   Інші пісні:
  • Dog Eat Dog
  • Story Of A Lonely Guy
  • I Miss You
  • Twist And Shout
  • Lord Of The Rings
  •  
    Шановний відвідувач, Ви зайшли на сайт як незареєстрований користувач. Ми рекомендуємо Вам реєструватися або зайти на сайт під своїм ім'ям.

    Додавання коментаря

    Ім'я:*
    E-Mail:*
    Коментар:
    Введіть два слова, показані на зображенні: *
     
      

    BLIBL-створити сайт безкоштовно