Зробити стартовою  |  Додати в вибране
 
Пошук по сайту:  
  логін: пароль:  
    Реєстрація на сайті   Нагадати пароль?    

Видавництво Симфонія | Книжкова фабрика

akords.org » A » Aerosmith » Draw The Line
Знайти необхідні акорди

Aerosmith - Draw The Line  табулатура

#----------------------------------PLEASE NOTE---------------------------------#
#This file is the author's own work and represents their interpretation of the #
#song. You may only use this file for private study, scholarship, or research. #
#------------------------------------------------------------------------------#

DRAW THE LINE
As recorded by Aerosmith
(From the 1977 Album DRAW THE LINE)

Transcribed by tonedeafidiot


Words and Music by Tyler/Perry

D
x 5 7 7 7 x

E
0 7 9 9 9 x

G
x 10 12 12 12 x

Gtr I (E A D G B E) - 'Untitled'
Gtr II (D G D G B D) - 'Slide Guitar 1'
Gtr III (E A D G B E) - 'Light Dist.'
Gtr IV (D G D G B D) - 'Slide Guitar 2'
Gtr V (E A D G B E) - 'Steve Tyler Vocals'

Intro
Moderately Q=132
4/4
Gtr II
W W H. +E E
|-----------|------------|--------------------|
|-----------|------------|--------------------|
|-----------|------------|-/9-----------(9)-8-|
|-----------|------------|--------------------|
|-----------|------------|--------------------|
|-----------|------------|--------------------|
|
| Gtr I
| H H +W Q E E E Q E
|-----------|------------|--------------------|
|-----------|------------|--9---9-9-9-9-----9-|
|-2----2----|-(2)--------|--9---9-9-9-9-----9-|
|-2----2----|-(2)--------|--9---9-9-9-9-----9-|
|-0----0----|-(0)--------|--7---7-7-7-7-----7-|
|-----------|------------|--0---0-0-0-0-----0-|


+Q Q Q. E E Q. E Q.
|----------9--------|----12--------------|
|-----------------9s|=12---------/9-------|
|-(8)s==9-----------|---------------9----|
|-------------------|---------------------|
|-------------------|---------------------|
|-------------------|---------------------|
|
| +E E Q E E E E Q E E E Q E
|-------------------|---------------------|
|-(9)-9-9--9--9-9-9-|--9-----9-9--9-9---9-|
|-(9)-9-9--9--9-9-9-|--9-----9-9--9-9---9-|
|-(9)-9-9--9--9-9-9-|--9-----9-9--9-9---9-|
|-(7)-7-7--9--9-9-9-|--7-----7-7--7-7---7-|
|-(0)-0-0--7--7-7-7-|--0-----0-0--0-0---0-|


E Q E +Q +Q W W
|-----------------------|----------------|-----------------|
|--8s=9-----------------|----------------|-----------------|
|---------9-(9)---(9)--|----------------|-----------------|
|-----------------------|----------------|-----------------|
|-----------------------|----------------|-----------------|
|-----------------------|----------------|-----------------|
|
| +E E Q E E Q E E E E E E Q E E E E +Q. E
|-----------------------|----------------|-5-----3-(3)-----|
|-(9)-9-9----9--9--9----|----------------|---5---5-(5)-----|
|-(9)-9-9----9--9--9----|----------------|-----2-----------|
|-(9)-9-9----9--9--9----|----------------|-----------------|
|-(7)-7-7----7--7--7----|-0-2-3-4-3-2-0--|-----------------|
|-(0)-0-0----0--0--0----|----------------|-----------------|


~~~~~~~~~~
Q E. S Q Q +H. Q
|-------------14-------|----------------------||
|----------------------|----------------------||
|----------14------14--|-(14)-----------------||
|----------------------|----------------------||
|----------------------|----------------------||
|----------------------|----------------------||
|
| E E E E E E Q E E E E +Q. E
|----------------------|---5------3-(3)-------||
|----------------------|------5---5-(5)-------||
|----------------------|--------2-------------||
|----------------------|----------------------||
|-0-2-3--4-----3-2--0--|----------------------||
|----------------------|----------------------||


Verses 1 & 2
$
Gtr V
Q Q E E E E +E E E E E Q E
|-3--3----3--4----4-|--(4)---------------------|
|-------------------|------2--3--2---3---2-----|
|-------------------|------------------------7-|
|-------------------|--------------------------|
|-------------------|--------------------------|
|-------------------|--------------------------|
|
| Gtr II
| H E Q E +Q E E +E Q E
|-----------12------|--------12---------12-----|
|--------12------12-|-(12)------12-(12)--------|
|-------------------|--------------------------|
|-------------------|--------------------------|
|-------------------|--------------------------|
|-------------------|--------------------------|
|
| Gtr I
| Q E E E Q E +E E Q E E Q
|-------------------|--------------------------|
|-9--9-9--9--9----9-|--(9)-9--9------9---9-9---|
|-9--9-9--9--9----9-|--(9)-9--9------9---9-9---|
|-9--9-9--9--9----9-|--(9)-9--9------9---9-9---|
|-7--7-7--7--7----7-|--(7)-7--7------7---7-7---|
|-0--0-0--0--0----0-|--(0)-0--0------0---0-0---|


+S S E +Q H W
|-------------------------|-------------------------|
|-------------------------|-------------------------|
|----(7)s6s2-(2)----------|-------------------------|
|-------------------------|-------------------------|
|-------------------------|-------------------------|
|-------------------------|-------------------------|
|
| ~~~
| a Q H. Q. E +E E E E
|------------19-----------|--------12-(12)s14-14----|
|-15s17-------------------|--------12-(12)s14-14----|
|-------------------------|-------------------------|
|-------------------------|-------------------------|
|-------------------------|-------------------------|
|-------------------------|-------------------------|
|
| E E E E E E Q E E E E +Q. E
|-------------------------|-5-------3--(3)----------|
|-------------------------|----5----5--(5)----------|
|-------------------------|------2------------------|
|-------------------------|-------------------------|
|-----0----2--3--4-3-2-0--|-------------------------|
|-------------------------|-------------------------|


Q Q E E E E +E E E E Q E E
|--3--3---3-4----4-|-(4)----------------|
|------------------|-----2-3-2-3---3----|
|------------------|------------------7-|
|------------------|--------------------|
|------------------|--------------------|
|------------------|--------------------|
|
| H Q Q +Q H Q
|------------------|--------------------|
|---------9--------|---------------9---|
|-/9----------4---|-(4)---9------------|
|------------------|--------------------|
|------------------|--------------------|
|------------------|--------------------|
|
| Q E E E Q E +E E Q E E Q
|------------------|--------------------|
|--9--9-9-9-9----9-|-(9)-9-9---9-9-9----|
|--9--9-9-9-9----9-|-(9)-9-9---9-9-9----|
|--9--9-9-9-9----9-|-(9)-9-9---9-9-9----|
|--7--7-7-7-7----7-|-(7)-7-7---7-7-7----|
|--0--0-0-0-0----0-|-(0)-0-0---0-0-0----|


To Coda
+S S E +Q H H. E E
|----------------------------|-------------------4-|
|----------------------------|---------------------|
|--(7)s6s2-(2)---------------|---------------------|
|----------------------------|---------------------|
|----------------------------|---------------------|
|----------------------------|---------------------|
|
| ~~~
| Q H +E E E E E E +E E E E
|----------19--------(19)---|-7------5-(5)--------|
|----------------------------|----7s5-------/5-2---|
|-/18------------------------|---------------------|
|----------------------------|---------------------|
|----------------------------|---------------------|
|----------------------------|---------------------|
|
| E E E E E E Q E E E E +Q. E
|----------------------------|-5------3-(3)--------|
|----------------------------|----5---5-(5)--------|
|----------------------------|------2--------------|
|----------------------------|---------------------|
|---0----2--3--4-3-2---0-----|---------------------|
|----------------------------|---------------------|


+Q E E Q E E Q E E Q E E
|-(4)--4-0-4-----4--0-|---4-----------------|
|---------------------|--------3-2--3-----2-|
|---------------------|-----------------2---|
|---------------------|---------------------|
|---------------------|---------------------|
|---------------------|---------------------|
|
| ~~~~~~~~~
| H. E E +H Q E E
|------------------12-|-(12)----------------|
|--------------/12----|------------/9-------|
|---------------------|-----------------9---|
|---------------------|---------------------|
|---------------------|---------------------|
|---------------------|---------------------|
|
| Q E E E Q E +E E Q E E Q
|---------------------|---------------------|
|--9---9-9-9-9------9-|--(9)-9-9----9-9-9---|
|--9---9-9-9-9------9-|--(9)-9-9----9-9-9---|
|--9---9-9-9-9------9-|--(9)-9-9----9-9-9---|
|--7---7-7-7-7------7-|--(7)-7-7----7-7-7---|
|--0---0-0-0-0------0-|--(0)-0-0----0-0-0---|


+E Q. +Q. E H E Q E
|------------------------|-------------5--5--|
|-(2)s10------(10)-------|-------------------|
|------------------------|-------------------|
|------------------------|-------------------|
|------------------------|-------------------|
|------------------------|-------------------|
|
| ~~~~~~
| W E E E E +Q. E
|------------------------|-7-----5-(5)-------|
|------------------------|---7s5-------------|
|------------------------|-------------------|
|------------------------|-------------------|
|------------------------|-------------------|
|------------------------|-------------------|
|
| E E E E E E Q E E E E +Q. E
|------------------------|-5-----3-(3)-------|
|------------------------|---5---5-(5)-------|
|------------------------|-----2-------------|
|------------------------|-------------------|
|--0---2--3-4---3--2-0---|-------------------|
|------------------------|-------------------|


+E E Q Q E E +E E E E E E E E
|-(5)-2-5---5---3-5-|-(5)---5--3-5-5----3s|
|-------------------|---------------------|
|-------------------|---------------------|
|-------------------|---------------------|
|-------------------|---------------------|
|-------------------|---------------------|
|
| H. Q H. Q
|-------------------|---------------------|
|-/7----------------|-/9------------------|
|-/7----------------|-/9------------------|
|-/7----------------|-/9------------------|
|-------------------|---------------------|
|-------------------|---------------------|
|
| Q E E E E Q Q E E E Q.
|-------------------|---------------------|
|-------------------|---------------------|
|--7----7-----7-----|--9----9-------------|
|--7----7-9p7-7-7---|--9----9-11p9-9------|
|--5----5-----------|--7----7------9------|
|-------------------|---------------------|


W +E E E E Q E S S
|--5-------------------|--(5)-----------------------|
|----------------------|----------3-2--3------------|
|----------------------|---------------------7--6s7-|
|----------------------|----------------------------|
|----------------------|----------------------------|
|----------------------|----------------------------|
|
| Q Q Q Q E E Q E Q E
|----------12----------|--12----------12s13s===14---|
|----------------12----|---------12---12s13s===14---|
|-----/12--------------|------12------12s13s===14---|
|----------------------|----------------------------|
|----------------------|----------------------------|
|----------------------|----------------------------|
|
| Q Q E Q E +E E Q E E Q
|----------------------|----------------------------|
|----------------------|----------------------------|
|-10---10--10-10----10-|-(10)-10-10---10-10-10------|
|-12---12--12-12----12-|-(12)-12-12---12-12-12------|
|-10---10--10-10----10-|-(10)-10-10---10-10-10------|
|----------------------|----------------------------|


+E Q. H W
|---------------------|------------------|
|---------------------|------------------|
|--(7)s=2-------------|------------------|
|---------------------|------------------|
|---------------------|------------------|
|---------------------|------------------|
|
| +H H E E E E +Q Q
|-(14)---------------|-7-----5-(5)------|
|-(14)---------------|---7s5------------|
|-(14)---------------|------------------|
|---------------------|------------------|
|---------------------|------------------|
|---------------------|------------------|
|
| E E E E E E Q E E E E +Q. E
|---------------------|-5-----3-(3)------|
|---------------------|---5---5-(5)------|
|---------------------|-----2------------|
|---------------------|------------------|
|---0---2--3-4-3-2-0--|------------------|
|---------------------|------------------|


D.S. al Coda
W H. E E
|----------------|-----------------0--||
|----------------|--------------------||
|----------------|--------------------||
|----------------|--------------------||
|----------------|--------------------||
|----------------|--------------------||
|
| W E E E E +Q Q
|----------------|-7------5-(5)-------||
|----------------|----7s5-------------||
|----------------|--------------------||
|----------------|--------------------||
|----------------|--------------------||
|----------------|--------------------||
|
| E E E E E E Q E E E E +Q. E
|----------------|-5------3-(3)-------||
|----------------|----5---5-(5)-------||
|----------------|------2-------------||
|----------------|--------------------||
|-0-2-3-4-3-2-0--|--------------------||
|----------------|--------------------||


&
Q E E Q E E Q E E Q E E
|-4----4--0--4-------4--0-|---4---------------|
|-------------------------|-------3-2--3----2-|
|-------------------------|---------------2---|
|-------------------------|-------------------|
|-------------------------|-------------------|
|-------------------------|-------------------|
|
| ~~~~~~~~~
| H. E E +H Q E E
|----------------------12-|-(12)--------------|
|------------------/12----|-----------/9------|
|-------------------------|---------------9---|
|-------------------------|-------------------|
|-------------------------|-------------------|
|-------------------------|-------------------|
|
| Q E E E Q. Q E E Q E E
|-------------------------|-------------------|
|-------------------------|-------------------|
|-----11-11-12-11---------|-------------------|
|-9---11-11-12-11---------|---9---9-9--9--9-9-|
|-7-----------------------|---7---7-7--7--7-7-|
|-0-----------------------|---0-----0--0----0-|


+E Q. +Q. E H E Q E
|------------------------|-------------5--5--|
|-(2)s10------(10)-------|-------------------|
|------------------------|-------------------|
|------------------------|-------------------|
|------------------------|-------------------|
|------------------------|-------------------|
|
| ~~~~~~
| W E E E E +Q. E
|------------------------|-7-----5-(5)-------|
|------------------------|---7s5-------------|
|------------------------|-------------------|
|------------------------|-------------------|
|------------------------|-------------------|
|------------------------|-------------------|
|
| E E E E E E Q E E E E +Q. E
|------------------------|-5-----3-(3)-------|
|------------------------|---5---5-(5)-------|
|------------------------|-----2-------------|
|------------------------|-------------------|
|--0---2--3-4---3--2-0---|-------------------|
|------------------------|-------------------|


D E
Gtr I
Q Q E Q E Q Q E Q E
| | | | | | | | | |
/ / / / / / / / / /

+E E Q Q E E +E E E E E E E E
|-(5)-2-5--5---3-5-|-(5)---5-3-5-5---3s|
|------------------|-------------------|
|------------------|-------------------|
|------------------|-------------------|
|------------------|-------------------|
|------------------|-------------------|
|
| H. Q H. Q
|------------------|-------------------|
|-/7---------------|-/9----------------|
|-/7---------------|-/9----------------|
|-/7---------------|-/9----------------|
|------------------|-------------------|
|------------------|-------------------|


G
Q Q E Q E Q Q E Q E
| | | | | | | | | |
/ / / / / / / / / /

W +E E E E Q E S S
|-5----------------|--(5)---------------------------|
|------------------|----------3--2---3--------------|
|------------------|------------------------7---6s7-|
|------------------|--------------------------------|
|------------------|--------------------------------|
|------------------|--------------------------------|
|
| H Q E E +Q E E +Q +E E
|---------------12-|-(12)-------15-(15)---(15)-----|
|-------10s==12----|--------/15---------------------|
|------------------|--------------------------------|
|------------------|--------------------------------|
|------------------|--------------------------------|
|------------------|--------------------------------|


+E Q. H W
|-------------------|-------------------|
|-------------------|-------------------|
|-(7)s2-------------|-------------------|
|-------------------|-------------------|
|-------------------|-------------------|
|-------------------|-------------------|
|
| ~~~
| W Q. E Q. E
|-------------------|-------------------|
|-------------------|-10s====17-17------|
|-------------------|-------------------|
|-------------------|-------------------|
|-------------------|-------------------|
|-------------------|-------------------|
|
| Gtr I
| E E E E E E Q E E E E +Q. E
|-------------------|--5------3-(3)-----|
|-------------------|----5----5-(5)-----|
|-------------------|------2------------|
|-------------------|-------------------|
|--0--2--3-4-3-2-0--|-------------------|
|-------------------|-------------------|


W W
|-----------------|---------------------------|
|-----------------|---------------------------|
|-----------------|---------------------------|
|-----------------|---------------------------|
|-----------------|---------------------------|
|-----------------|---------------------------|
|
| E E E E E E Q +Q E E +E E E E
|-----------------|---------------------------|
|--------3--------|---------12-(12)-------12--|
|-2----2---0---2--|-(2)-------------14s12-----|
|---/5-------2----|---------------------------|
|-----------------|---------------------------|
|-----------------|---------------------------|
|
| E E E E E E Q E E E E +Q. E
|-----------------|--5-------3--(3)-----------|
|-----------------|-----5----5--(5)-----------|
|-----------------|-------2-------------------|
|-----------------|---------------------------|
|-0--2-3-4-3-2-0--|---------------------------|
|-----------------|---------------------------|


W W
|-----------------------|--------------------------|
|-----------------------|--------------------------|
|-----------------------|--------------------------|
|-----------------------|--------------------------|
|-----------------------|--------------------------|
|-----------------------|--------------------------|
|
| +Q Q Q Q Q. E +E E E E
|-------------/12-------|--------/12-(12)-12-12s14-|
|-(12)---10---/12---14--|--------/12-(12)----------|
|-----------------------|--------------------------|
|-----------------------|--------------------------|
|-----------------------|--------------------------|
|-----------------------|--------------------------|
|
| E E E E E E Q E E E E +Q. E
|-----------------------|-5--------3--(3)----------|
|-----------------------|----5-----5--(5)----------|
|-----------------------|------2-------------------|
|-----------------------|--------------------------|
|---0--2--3-4---3-2--0--|--------------------------|
|-----------------------|--------------------------|


W H. E E
|--------------------------|-------------------------------7---||
|--------------------------|-------------------------------9---||
|--------------------------|-----------------------------------||
|--------------------------|-----------------------------------||
|--------------------------|-----------------------------------||
|--------------------------|-----------------------------------||
|
| ~~ ~~
| Q E E a Q E E +E +E E E +E E E +E
|------14------------17----|-----------------------14-14-(14)-||
|-14---------17s15------17-|-(17)-(17)------------------------||
|-14------14---------------|--------------/14-(14)-------------||
|--------------------------|--------------/14-(14)-------------||
|--------------------------|-----------------------------------||
|--------------------------|-----------------------------------||
|
| E E E E E E Q E E E E +Q. E
|--------------------------|---5------------3--(3)-------------||
|--------------------------|--------5-------5--(5)-------------||
|--------------------------|------------2----------------------||
|--------------------------|-----------------------------------||
|--0-2--3--4-----3-2--0----|-----------------------------------||
|--------------------------|-----------------------------------||


Verse 3
+Q Q E E E E E E E E E Q E
|-(7)--7--7--7--7---|--7--------------------|
|-(9)--8--8--8--8-8-|--8--8-----------------|
|-----------------9-|-----7--7-6--7--7----5-|
|-------------------|-----------------------|
|-------------------|-----------------------|
|-------------------|-----------------------|
|
| Gtr I
| Q Q E Q. E E Q E E Q
|-------------------|-----------------------|
|-------------------|-----------------------|
|-----------11------|-12-12-12---12-12-12---|
|--9---9--9-11------|-12-12-12---12-12-12---|
|--7---7--7---------|--7-----7----7-----7---|
|--0----------------|-----------------------|


+E Q. H H E E E E
|-------------------|-------------5s0-4--|
|-------------------|--------------------|
|-(5)s2-------------|--------------------|
|-------------------|--------------------|
|-------------------|--------------------|
|-------------------|--------------------|
|
| E E E E E E Q E E E E +Q. E
|-------------------|-5-----3-(3)--------|
|-------------------|---5---5-(5)--------|
|-------------------|-----2--------------|
|-------------------|--------------------|
|--0--2--3-4-3-2-0--|--------------------|
|-------------------|--------------------|


+Q Q E E E E E E E E E E E E
|-(4)--3---4-----0-|--9--9-9----------------|
|------------2-----|--9------10-10-10-10-10-|
|------------------|-----7-7--6--7--7--7--7-|
|------------------|------------------------|
|------------------|------------------------|
|------------------|------------------------|
|
| Q E E E Q E +E E Q E E Q
|------------------|------------------------|
|--9---9-9-9-9---9-|-(9)-9-9-----9--9--9----|
|--9---9-9-9-9---9-|-(9)-9-9-----9--9--9----|
|--9---9-9-9-9---9-|-(9)-9-9-----9--9--9----|
|--7---7-7-7-7---7-|-(7)-7-7-----7--7--7----|
|--0---0-0-0-0---0-|-(0)-0-0-----0--0--0----|


+E Q. +H +E H Q E
|----------------------|-------------------5--|
|-(10)s5------(5)------|-(5)s14---------------|
|--(7)s2------(2)------|-(2)s14---------------|
|----------------------|----------------------|
|----------------------|----------------------|
|----------------------|----------------------|
|
| E E E E E E Q E E E E +Q. E
|----------------------|--5-------3-(3)-------|
|----------------------|------5---5-(5)-------|
|----------------------|--------2-------------|
|----------------------|----------------------|
|---0--2--3-4--3--2-0--|----------------------|
|----------------------|----------------------|


D E G
Gtr I
Q Q E Q E Q Q E Q E Q Q E Q E Q Q E Q E
| | | | | | | | | | | | | | | | | | | |
/ / / / / / / / / / / / / / / / / / / /

+E E Q Q E E +Q E E E Q E W +H. Q
|-(5)-2-5--5---3-5-|-(5)--5-3-5-5--3s|=5------------|-(5)--------------|
|------------------|-----------------|-7------------|-(7)--------------|
|------------------|-----------------|--------------|------------------|
|------------------|-----------------|--------------|------------------|
|------------------|-----------------|--------------|------------------|
|------------------|-----------------|--------------|------------------|


D E G
Q Q E Q E Q Q E Q E Q Q E Q E Q Q E Q E
| | | | | | | | | | | | | | | | | | | |
/ / / / / / / / / / / / / / / / / / / /

Q Q E E E E Q E E E E E E H H H. Q
|-5--5--5-3-5-3-|-5--5-3-5-5-5-3s|=5-----(5)-----|-(5)--------------|
|-----------5-3-|-5--5-5-5-5-5-5s|=8s=====7s=====|==5---------------|
|---------------|----------------|---------------|------------------|
|---------------|----------------|---------------|------------------|
|---------------|----------------|---------------|------------------|
|---------------|----------------|---------------|------------------|


E D
Q Q E E E E +E E E E E Q E
| | | | | | | | | | | | |
/ / / / / / / / / / / / /

Q Q E E E E E E E E E Q E
|-4--4--4-4-4-2-|--2-2-2-0-2-2--2s|
|-5--5--5-5-5-3-|--3-3-3-2-3-3--3s|
|---------------|-----------------|
|---------------|-----------------|
|---------------|-----------------|
|---------------|-----------------|
|
| Gtr II
| W W
|---------------|-----------------|
|---------------|-----------------|
|---------------|-----------------|
|---------------|-----------------|
|---------------|-----------------|
|---------------|-----------------|


E
E E Q E Q E +E E Q E Q E
| | | | | | | | | | |
/ / / / / / / / / / /

H. +E E +E E E E Q E E
|---4------------(4)s=5-|--(5)------------------|
|---5-------------------|---------7--7-7---7-7--|
|-----------------------|---------7--7-7---7-7--|
|-----------------------|-----------------------|
|-----------------------|-----------------------|
|-----------------------|-----------------------|
|
| H. +E E +Q H.
|-/26-----------(26)----|-----------------------|
|--------------------24-|-(24)-----------------|
|-----------------------|-----------------------|
|-----------------------|-----------------------|
|-----------------------|-----------------------|
|-----------------------|-----------------------|


+E E E E +H W W W
|--------------------|----------------|----------|---------------------|
|-(7)s5s2s14-(14)----|----------------|----------|---------------------|
|-(7)s6s2s14-(14)----|----------------|----------|---------------------|
|--------------------|----------------|----------|---------------------|
|--------------------|----------------|----------|---------------------|
|--------------------|----------------|----------|---------------------|
|
| W H E E Q W H E Q +E
|--------------------|------------19--|----------|----------14--(14)--|
|--------------------|------15s17-----|----------|------/14------------|
|--------------------|----------------|----------|---------------------|
|--------------------|----------------|----------|---------------------|
|--------------------|----------------|----------|---------------------|
|--------------------|----------------|----------|---------------------|


Gtr II
~~~~ ~~~~~~~
W Q. E +Q Q +W Q. E +H
|----------|------17-(17)s=19--|-(19)--------|-----------------||
|----------|-------------------|-------------|-----------------||
|----------|-------------------|-------------|------14-(14)----||
|----------|-------------------|-------------|------14-(14)----||
|----------|-------------------|-------------|-----------------||
|----------|-------------------|-------------|-----------------||


Interlude
~~~~~~~~~~~~~~~~~~~~~~~~~~~~~~~~~~~~~
+W +W +H. Q Q E E +H
|-------------|-------------------|--------------|---------12-(12)------|
|-------------|-------------------|--------------|-10s==12--------------|
|-(14)--------|-(14)--------------|-(14)---------|----------------------|
|-(14)--------|-(14)--------------|-(14)---------|----------------------|
|-------------|-------------------|--------------|----------------------|
|-------------|-------------------|--------------|----------------------|
|
| Gtr I
| W E E E E Q. E W E E E E Q. E
|-------------|---5------3-3------|--------------|--5-------3---3-------|
|-------------|------5---5-5------|--------------|----5-----5---5-------|
|-------------|--------2----------|--------------|-------2--------------|
|-------------|-------------------|--------------|----------------------|
|-------------|-------------------|--------------|----------------------|
|-------------|-------------------|--------------|----------------------|


~~~~~~~
+W Q E E +H +W Q. E +H
|-(12)--------------|---------14-(14)-----|-(14)--------|------12-(12)----|
|-------------------|-12s==14-------------|-------------|-----------------|
|-------------------|---------------------|-------------|-----------------|
|-------------------|---------------------|-------------|-----------------|
|-------------------|---------------------|-------------|-----------------|
|-------------------|---------------------|-------------|-----------------|
|
| E E E E E E Q E E E E +Q. E W W
|-------------------|--5-------3--(3)-----|-------------|-----------------|
|-------------------|----5-----5--(5)-----|-------------|-----------------|
|-------------------|-------2-------------|-------------|-----------------|
|-------------------|---------------------|-------------|-----------------|
|---0--2-3-4-3-2-0--|---------------------|-------------|-----------------|
|-------------------|---------------------|-------------|-----------------|


Gtr V
W W W Q. Q Q.
|-------------|----------------|------------------|--------12-----14------||
|-------------|----------------|------------------|-----------------------||
|-------------|----------------|------------------|-----------------------||
|-------------|----------------|------------------|-----------------------||
|-------------|----------------|------------------|-----------------------||
|-------------|----------------|------------------|-----------------------||
|
| Gtr III
| H. E E E Q. E E E E +E E E E E Q E E E E E +E E Q
|---------5---|---3----5-----3-|-(3)---5-----3----|-5-------3-(3)-----5---||
|-----------5-|----------5-----|---------5------5-|----5-----------5------||
|-------------|-2----------2---|-----2-----2------|------2----------------||
|-------------|----------------|------------------|-----------------------||
|-------------|----------------|------------------|-----------------------||
|-------------|----------------|------------------|-----------------------||


Bridge
E
Gtr I
Q Q E E E E E E Q E E Q
| | | | | | | | | | | |
/ / / / / / / / / / / /

Q Q Q E E Q E E E E Q
|-16--16--16---16-16-|-16---16-16-16-16-16--|
|--------------------|----------------------|
|--------------------|----------------------|
|--------------------|----------------------|
|--------------------|----------------------|
|--------------------|----------------------|


E E E E E Q E E E Q E E E E
| | | | | | | | | | | | | |
/ / / / / / / / / / / / / /

E E E E E Q E +E E E E E E E E
|---16-16-----16--16-|-(16)-12-12-12-12-12-14-15--|
|--------------------|----------------------------|
|--------------------|----------------------------|
|--------------------|----------------------------|
|--------------------|----------------------------|
|--------------------|----------------------------|


E
E E Q E Q E E E Q E E E E
| | | | | | | | | | | | |
/ / / / / / / / / / / / /

E E Q E E E E +E E E E +Q E E
|-16-16-16----15-15-15-|-(15)-12-12-12-(12)---15-16-|
|----------------------|----------------------------|
|----------------------|----------------------------|
|----------------------|----------------------------|
|----------------------|----------------------------|
|----------------------|----------------------------|


E E Q E Q E E E Q E E E E
| | | | | | | | | | | | |
/ / / / / / / / / / / / /

E E Q E E E E Q Q Q E E
|---16-16--15-15-15-12-|-4---5-----------||
|----------------------|--------3---1s2--||
|----------------------|-----------------||
|----------------------|-----------------||
|----------------------|-----------------||
|----------------------|-----------------||


Outro
+E Q. +Q Q Q E E +Q Q
|-----------------------|-9s==5-----3--(3)s==5---|
|-(2)s10------(10)------|------------------------|
|-----------------------|------------------------|
|-----------------------|------------------------|
|-----------------------|------------------------|
|-----------------------|------------------------|
|
| Gtr I
| E E E E E E Q E E E E +Q. E
|-----------------------|-5---------3--(3)-------|
|-----------------------|---5-------5--(5)-------|
|-----------------------|-----2------------------|
|-----------------------|------------------------|
|--0---2--3-4---3--2-0--|------------------------|
|-----------------------|------------------------|
|
| Gtr IV
| ~~
| W Q. a E +Q Q
|-----------------------|-------14s12-(12)s=14---|
|-----------------------|-------14s12-(12)s=14---|
|-----------------------|------------------------|
|-----------------------|------------------------|
|-----------------------|------------------------|
|-----------------------|------------------------|


W Q E E Q Q
|----------------|-9s==5-----4---4s===5----|
|----------------|-------------------------|
|----------------|-------------------------|
|----------------|-------------------------|
|----------------|-------------------------|
|----------------|-------------------------|
|
| E E E E E E Q E E E E +Q. E
|----------------|-5---------3--(3)--------|
|----------------|---5-------5--(5)--------|
|----------------|-----2-------------------|
|----------------|-------------------------|
|-0-2-3-4-3-2-0--|-------------------------|
|----------------|-------------------------|
|
| ~~
| W Q. a E +Q Q
|----------------|-------14s12-(12)s=14----|
|----------------|-------14s12-(12)s=14----|
|----------------|-------------------------|
|----------------|-------------------------|
|----------------|-------------------------|
|----------------|-------------------------|


Gtr I
E E E E E E Q E E E E +Q. E
|----------------|-5----------3--(3)-------|
|----------------|----5-------5--(5)-------|
|----------------|------2------------------|
|----------------|-------------------------|
|-0-2-3-4-3-2-0--|-------------------------|
|----------------|-------------------------|
|
| Gtr II
| W Q. E +Q Q
|----------------|-------------------------|
|----------------|-------------------------|
|----------------|-----------/5--(5)---2---|
|----------------|-------------------------|
|----------------|-------------------------|
|----------------|-------------------------|
|
| Gtr IV
| ~~
| W Q. a E +Q Q
|----------------|--------14s12-(12)s=14---|
|----------------|--------14s12-(12)s=14---|
|----------------|-------------------------|
|----------------|-------------------------|
|----------------|-------------------------|
|----------------|-------------------------|


E E E E E E Q E E E E +Q. E
|---------------------|-5----------3--(3)--------|
|---------------------|----5-------5--(5)--------|
|---------------------|------2-------------------|
|---------------------|--------------------------|
|--0--2-3-4-3-2--0----|--------------------------|
|---------------------|--------------------------|
|
| +H. +E E E E E E +Q Q
|---------------------|--------------------------|
|---------------------|--------------------------|
|-(2)-----------(2)---|------2----/5--(5)---2----|
|-------------------2-|-4--2---------------------|
|---------------------|--------------------------|
|---------------------|--------------------------|
|
| ~~
| W Q. a E +Q Q
|---------------------|--------14s12-(12)s=14----|
|---------------------|--------14s12-(12)s=14----|
|---------------------|--------------------------|
|---------------------|--------------------------|
|---------------------|--------------------------|
|---------------------|--------------------------|


E E E E E E Q E E E E +Q. E
|-------------------|-5----------3--(3)--------|
|-------------------|----5-------5--(5)--------|
|-------------------|------2-------------------|
|-------------------|--------------------------|
|-0-2-3-4--3--2-0---|--------------------------|
|-------------------|--------------------------|
|
| E E E E +E E E E E E Q E E E E
|-------------------|--------------------------|
|-------------------|--------------------------|
|-------2-(2)-----2-|-2----2---------2--2----2-|
|---4-2-------4-2---|----2---------------------|
|-------------------|--------------------------|
|-------------------|--------------------------|
|
| ~~
| W Q. a E +Q Q
|-------------------|--------14s12-(12)s==14---|
|-------------------|--------14s12-(12)s==14---|
|-------------------|--------------------------|
|-------------------|--------------------------|
|-------------------|--------------------------|
|-------------------|--------------------------|


E E E E E E Q E E E E +Q. E
|-----------------|-5---------3--(3)--------|
|-----------------|---5-------5--(5)--------|
|-----------------|-----2-------------------|
|-----------------|-------------------------|
|-0-2-3-4-3-2-0---|-------------------------|
|-----------------|-------------------------|
|
| E E E E E E E E E E E E +Q Q
|-----------------|-------------------------|
|-----------------|-------------------------|
|-----------------|-5s4-2-----0--(0)---2----|
|-------7---------|-------------------------|
|-4-5-6---4-5-6-2-|-------------------------|
|-----------------|-------------------------|
|
| ~~
| W Q. a E +Q Q
|-----------------|-------14s12-(12)s=14----|
|-----------------|-------14s12-(12)s=14----|
|-----------------|-------------------------|
|-----------------|-------------------------|
|-----------------|-------------------------|
|-----------------|-------------------------|


Fade Begins
E E E E E E Q E E E E +Q. E
|--------------------------------|-5---------3--(3)-------|
|--------------------------------|---5-------5--(5)-------|
|--------------------------------|-----2------------------|
|--------------------------------|------------------------|
|-0---2-----3-----4-----3--2--0--|------------------------|
|--------------------------------|------------------------|
|
| ~~
| e S S S S S S E E q E E E E +Q Q
|---/12-12-12-12-12-12-12----12--|------------------------|
|---/12-12-12-12-12-12-12----12--|------------------------|
|-2-----------------------12-----|-5s4-2-----0--(0)---2---|
|--------------------------------|------------------------|
|--------------------------------|------------------------|
|--------------------------------|------------------------|
|
| ~~
| W Q. a E +Q Q
|--------------------------------|-------14s12-(12)s=14---|
|--------------------------------|-------14s12-(12)s=14---|
|--------------------------------|------------------------|
|--------------------------------|------------------------|
|--------------------------------|------------------------|
|--------------------------------|------------------------|


E E E E E E Q E E E E +Q. E
|-----------------------|-5-----------3--(3)-------*|
|-----------------------|-----5-------5--(5)-------*|
|-----------------------|-------2------------------*|
|-----------------------|--------------------------*|
|--0--2--3--4--3--2--0--|--------------------------*|
|-----------------------|--------------------------*|
|
| ~~~~~~~~~~~~~~~~~
| e E E E E E Q E E E E Q Q
|-------12----12----12--|--------------------------*|
|-14-12----12----12-----|--------------------------*|
|-14--------------------|----/5-2---------0----2---*|
|-----------------------|-------------2------------*|
|-----------------------|--------------------------*|
|-----------------------|--------------------------*|
|
| ~~
| W Q. a E +Q Q
|-----------------------|---------14s12-(12)s=14---*|
|-----------------------|---------14s12-(12)s=14---*|
|-----------------------|--------------------------*|
|-----------------------|--------------------------*|
|-----------------------|--------------------------*|
|-----------------------|--------------------------*|



Duration Legend
---------------
W - whole; H - half; Q - quarter; E - 8th; S - 16th; T - 32nd; X - 64th; a - acciaccatura
+ - note tied to previous; . - note dotted; .. - note double dotted
Uncapitalized letters represent notes that are staccato (1/2 duration)
Irregular groupings are notated above the duration line
Duration letters will always appear directly above the note/fret number it represents the
duration for. Duration letters with no fret number below them represent rests. Multi-
bar rests are notated in the form Wxn, where n is the number of bars to rest for. Low
melody durations appear below the staff

Tablature Legend
----------------
h - hammer-on
p - pull-off
b - bend
pb - pre-bend
r - bend release (if no number after the r, then release immediately)
/ - slide into or out of (from/to "nowhere")
s - legato slide
S - shift slide
- natural harmonic
[n] - artificial harmonic
n(n) - tapped harmonic
~ - vibrato
tr - trill
T - tap
TP - trem. picking
PM - palm muting
n/ - tremolo bar dip; n = amount to dip
n - tremolo bar down
n/ - tremolo bar up
/n - tremolo bar inverted dip
= - hold bend; also acts as connecting device for hammers/pulls
<> - volume swell (louder/softer)
x - on rhythm slash represents muted slash
o - on rhythm slash represents single note slash

Misc Legend
-----------
| - bar
|| - double bar
||o - repeat start
o|| - repeat end
*| - double bar (ending)
: - bar (freetime)
$ - Segno
& - Coda
Tempo markers - = BPM(8/16=s8/s16), where s8 = swing 8ths, s16 = swing 16ths

-----------------------------
|  акорди, навчання, відео  |
|     http://akords.org     |
-----------------------------

 (голосів: 0)
   Інші пісні:
  • Rag Dol
  • Two Of Us
  • Black Chamber
  • If I Fell 2
  • Girl 2
  •  
    Шановний відвідувач, Ви зайшли на сайт як незареєстрований користувач. Ми рекомендуємо Вам реєструватися або зайти на сайт під своїм ім'ям.

    Додавання коментаря

    Ім'я:*
    E-Mail:*
    Коментар:
    Введіть два слова, показані на зображенні: *
     
      

    BLIBL-створити сайт безкоштовно