Зробити стартовою  |  Додати в вибране
 
Пошук по сайту:  
  логін: пароль:  
    Реєстрація на сайті   Нагадати пароль?    

Видавництво Симфонія | Книжкова фабрика

akords.org » A » Aerosmith » Deuces Are Wild
Знайти необхідні акорди

Aerosmith - Deuces Are Wild  табулатура

#----------------------------------PLEASE NOTE---------------------------------#
#This file is the author's own work and represents their interpretation of the #
#song. You may only use this file for private study, scholarship, or research. #
#------------------------------------------------------------------------------#

DEUCES ARE WILD
As recorded by Aerosmith

Transcribed by tonedeafidiot


Words and Music by Steven Tyler and Jim Vallance

G5
3 x 0 0 3 3

D
x x 0 2 3 2

C
x 3 2 0 1 0

G
3 2 0 0 0 3

Fadd9
x 8 5 5 6 5

F5
1 3 3 x 1 1

C5
x 3 x 0 1 x

Bb5
x 1 3 3 x x

Gtr I (E A D G B E) - 'Acoustic'
Gtr II (E A D G B E) - '12 String Acoustic'
Gtr III (E A D G B E) - 'Distortion '
Gtr IV (E A D G B E) - 'Clean'
Gtr V (E A D G B E) - 'Dobro'

Intro
Moderately Slow Q=76
G5
4/4
Gtr III
W +W
| |
/ /

Gtr I
E. S +S E S E. S +S E S E. S +S E S E. S +S S E
|---------------------------------------|--------------------------------------|
|--------------3------------------3-----|---------------3------------------3---|
|-0------------------0------------------|--0------------------0----------------|
|--------0-(0)-----0--------0-(0)-----0-|---------0-(0)-----0--------0-(0)---0-|
|---------------------------------------|--------------------------------------|
|-3----3----3----3---3----3----3----3---|--3----3----3----3---3----3----3------|
| E E E E E E E E E E E E E E Q
|
| Gtr II
| S S S S S S S S S S S S S S S S S S S S S S S S S S S S S S E
|-----------3----3-------------3----3---|------------3----3-------------3----3-|
|--------3-----3---3--------3-----3---3-|---------3-----3---3--------3-----3---|
|------0------------------0-------------|-------0------------------0-----------|
|----0------------------0---------------|-----0------------------0-------------|
|---------------------------------------|--------------------------------------|
|-3------------------3------------------|--3------------------3----------------|


S S S S S S S S S S S S S S S S
|-----------------------------------------------------|
|----------------3-(3)--------------------3-(3)-------|
|--------------0-----------0-----------0----------0---|
|------------0---------0------0--(0)-0----------0---0-|
|-----------------------------------------------------|
|---------3---------3-------------3----------3--------|
|
| S S S S S S S S S S S S S S S S
|-------------------3------3-----------------3----3---|
|----------------3-----3------3-----------3-----3---3-|
|--------------0-----------------------0--------------|
|------------0-----------------------0----------------|
|-----------------------------------------------------|
|---------3-----------------------3-------------------|
|
| Gtr IV
| a +Q. +E +E Q.
|-----------------------------------------------------|
|-10b12-(10)-------------(10)r==(10)------------------|
|-----------------------------------------------------|
|-----------------------------------------------------|
|-----------------------------------------------------|
|-----------------------------------------------------|


S S S S S S S S S S S S S S S S
|-----------------------------------------------------|
|----------------3---(3)-----------------3-(3)--------|
|-----------0---------------0----------0---------0----|
|-------0----------------0-----0-(0)-0---------0---0--|
|-----------------------------------------------------|
|--3------------------3-----------3---------3---------|
|
| S S S S S S S S S S S S S S E
|---------------------3-----3---------------3----3----|
|----------------3-------3-----3---------3-----3------|
|-----------0--------------------------0--------------|
|-------0----------------------------0----------------|
|-----------------------------------------------------|
|--3------------------------------3-------------------|
|
| ~~~~~~~~~~~~~~
| E +S +S +E Q. Q
|-----------------------------------------------------|
|-12b14---(12)r(12)-(12)------------------------------|
|--------------------------12-------------------------|
|-----------------------------------------------------|
|-----------------------------------------------------|
|-----------------------------------------------------|


S S S S S S S S S S S S S S S S
|-------------------------------------|
|-------0-(0)-------------3-(3)-------|
|-----0---------0-------0---------0---|
|---0---------0---0---0---------0---0-|
|-3--------3--------3--------3--------|
|-------------------------------------|
|
| S S S S S S S S S S S S S S E
|----------3----3------------3----3---|
|-------3-----3---3-------3-----3-----|
|-----0-----------------0-------------|
|---0-----------------0---------------|
|-------------------------------------|
|-3-----------------3-----------------|
|
| W
|-------------------------------------|
|-------------------------------------|
|-------------------------------------|
|-------------------------------------|
|-------------------------------------|
|-------------------------------------|


S S S S S S S S S S S S S S S S
|--------------------------------------------||
|----------3--(3)-----------------3-(3)------||
|-------0------------0----------0--------0---||
|----2------------2-----2-(2)-2--------2---2-||
|--------------------------------------------||
|--0-----------0-----------0---------0-------||
|
| S S S S S S S S S S S S S S E
|--------------------------------------------||
|--------------------------------------------||
|----0---------0-----0--------0------0---0---||
|-------2---------2-----2-------2------2-----||
|----------5----------------------5----------||
|--0-----------------------0-----------------||
|
| ~~~~~~~~~
| E S S +E Q. S S E
|--------------------------------------------||
|-12s==13s12-(12)----------------------------||
|-------------------12---------------7s9s7---||
|--------------------------------------------||
|--------------------------------------------||
|--------------------------------------------||


Verse
G5
Gtr III
W
|
/

S S S S S S S S S S S S S S S S
||----------------------------------------|
||o-------3-(3)---------------3-(3)-------|
||------0---------0---------0---------0---|
||----0---------0---0-(0)-0---------0---0-|
||o---------------------------------------|
||--3--------3---------3---------3--------|
|
| S S S S S S S S S S S S S S S S
||-----------3----3--------------3----3---|
||o-------3-----3---3---------3-----3---3-|
||------0-------------------0-------------|
||----0-------------------0---------------|
||o---------------------------------------|
||--3------------------3------------------|


+W
|
/

S S S S S S S S S S S S S S S S
|-----------------------------------------|
|--------3-(3)---------------3-(3)--------|
|------0---------0---------0---------0----|
|----0---------0---0-(0)-0---------0---0--|
|-----------------------------------------|
|--3--------3---------3---------3---------|
|
| S S S S S S S S S S S S S S E
|-----------3----3--------------3----3----|
|--------3-----3---3---------3-----3------|
|------0-------------------0--------------|
|----0-------------------0----------------|
|-----------------------------------------|
|--3------------------3-------------------|


S S S S S S S S S S S S S S S S
|-------------------------------------|
|-------0-(0)-------------3-(3)-------|
|-----0---------0-------0---------0---|
|---0---------0---0---0---------0---0-|
|-3--------3--------3--------3--------|
|-------------------------------------|
|
| S S S S S S S S S S S S S S E
|----------3----3------------3----3---|
|-------3-----3---3-------3-----3-----|
|-----0-----------------0-------------|
|---0-----------------0---------------|
|-------------------------------------|
|-3-----------------3-----------------|
|
| Gtr IV
| W
|-------------------------------------|
|-------------------------------------|
|-------------------------------------|
|-------------------------------------|
|-------------------------------------|
|-------------------------------------|


S S S S S S S S S S S S S S S S
|--------------------------------------------|
|----------3--(3)-----------------3-(3)------|
|-------0------------0----------0--------0---|
|----2------------2-----2-(2)-2--------2---2-|
|--------------------------------------------|
|--0-----------0-----------0---------0-------|
|
| S S S S S S S S S S S S S S E
|--------------------------------------------|
|--------------------------------------------|
|----0---------0-----0--------0------0---0---|
|-------2---------2-----2-------2------2-----|
|----------5----------------------5----------|
|--0-----------------------0-----------------|
|
| ~~~~~~~~~
| E S S +E Q. S S E
|--------------------------------------------|
|-12s==13s12-(12)----------------------------|
|-------------------12---------------7s9s7---|
|--------------------------------------------|
|--------------------------------------------|
|--------------------------------------------|


G5
Gtr III
W
|
/

S S S S S S S S S S S S S S S S
|---------------------------------------|
|-------3-(3)---------------3-(3)-------|
|-----0---------0---------0---------0---|
|---0---------0---0-(0)-0---------0---0-|
|---------------------------------------|
|-3--------3---------3---------3--------|
|
| S S S S S S S S S S S S S S S S
|----------3----3--------------3----3---|
|-------3-----3---3---------3-----3---3-|
|-----0-------------------0-------------|
|---0-------------------0---------------|
|---------------------------------------|
|-3------------------3------------------|
|
| W
|---------------------------------------|
|---------------------------------------|
|---------------------------------------|
|---------------------------------------|
|---------------------------------------|
|---------------------------------------|


+W
|
/

S S S S S S S S S S S S S S S S
|----------------------------------------------------|
|----------------3---(3)-----------------3-(3)-------|
|-----------0---------------0----------0---------0---|
|-------0----------------0-----0-(0)-0---------0---0-|
|----------------------------------------------------|
|--3------------------3-----------3---------3--------|
|
| S S S S S S S S S S S S S S E
|---------------------3-----3---------------3----3---|
|----------------3-------3-----3---------3-----3-----|
|-----------0--------------------------0-------------|
|-------0----------------------------0---------------|
|----------------------------------------------------|
|--3------------------------------3------------------|
|
| ~~~~~~~~~~~~~~
| E +S +S +E Q. Q
|----------------------------------------------------|
|-12b14---(12)r(12)-(12)-----------------------------|
|--------------------------12------------------------|
|----------------------------------------------------|
|----------------------------------------------------|
|----------------------------------------------------|


S S S S S S S S S S S S S S S S
|-------------------------------------|
|-------0-(0)-------------3-(3)-------|
|-----0---------0-------0---------0---|
|---0---------0---0---0---------0---0-|
|-3--------3--------3--------3--------|
|-------------------------------------|
|
| S S S S S S S S S S S S S S E
|----------3----3------------3----3---|
|-------3-----3---3-------3-----3-----|
|-----0-----------------0-------------|
|---0-----------------0---------------|
|-------------------------------------|
|-3-----------------3-----------------|
|
| W
|-------------------------------------|
|-------------------------------------|
|-------------------------------------|
|-------------------------------------|
|-------------------------------------|
|-------------------------------------|


S S S S S S S S S S S S S S S S
|--------------------------------------------||
|----------3--(3)-----------------3-(3)------||
|-------0------------0----------0--------0---||
|----2------------2-----2-(2)-2--------2---2-||
|--------------------------------------------||
|--0-----------0-----------0---------0-------||
|
| S S S S S S S S S S S S S S E
|--------------------------------------------||
|--------------------------------------------||
|----0---------0-----0--------0------0---0---||
|-------2---------2-----2-------2------2-----||
|----------5----------------------5----------||
|--0-----------------------0-----------------||
|
| ~~~~~~~~~
| E S S +E Q. S S E
|--------------------------------------------||
|-12s==13s12-(12)----------------------------||
|-------------------12---------------7s9s7---||
|--------------------------------------------||
|--------------------------------------------||
|--------------------------------------------||


Pre-Chorus
D
Gtr III
H. +E S S
| | | |
/ / x x

S S S S S S S S S S S S S S S S
|----------2----------------2--------|
|------3-----3---3-----3-------3---3-|
|----2---2-----2-----2---2-------2---|
|-0----------------0-----------------|
|------------------------------------|
|------------------------------------|
|
| Gtr V
| H. S E S
|-----------------------------10s==8-|
|-7---------------------------10s==8-|
|-7----------------------------------|
|-7----------------------------------|
|------------------------------------|
|------------------------------------|


C G
H Q. E
| | |
/ / /

S S S S S S S S S S S S S S S S
|----------3---------------------3---------|
|--------------3-----3--------------3----3-|
|-----0------------0--------0----------0---|
|---0---0-----------------0---0------------|
|-3----------------------------------------|
|----------------------3-------------------|
|
| Q +S +E. Q +S E.
|-8-------(8)-(8)-----3--------(3)-3------|
|-8-------(8)-(8)-----3--------(3)-3/-----|
|------------------------------------------|
|------------------------------------------|
|------------------------------------------|
|------------------------------------------|


D Fadd9
H. +E E W
| | | |
/ / / /

S S S S S S S S S S S S S S S S S S S S S S S S S S S S S S S S
|----------2----------------2-------|------------1----------------1-------|
|------3-----3---3-----3------3---3-|--------1------1---1-----1-----1---1-|
|----2---2-----2-----2---2------2---|-----0----0------0-----0---0-----0---|
|-0----------------0----------------|--3------------------3---------------|
|-----------------------------------|-------------------------------------|
|-----------------------------------|-------------------------------------|
|
| H. S E S +S E. H.
|-----------------------------5s==3-|-(3)-3-------------------------------|
|-7---------------------------------|-------------------------------------|
|-7---------------------------------|-------------------------------------|
|-7---------------------------------|-------------------------------------|
|-----------------------------------|-------------------------------------|
|-----------------------------------|-------------------------------------|


Chorus
G5 F5 C5
+H. Q Q S E.Q Q
| | | | | | |
/ x / x / / /

S S S S +S S E S S S S E S S W
|---------1-(1)-------------------||----------------|
|-------1-------1---1-------1-----||----------------|
|-----0-----------0---0---0---0---||----------------|
|--3--------------------3-------3-||----------------|
|---------------------------------||----------------|
|---------------------------------||----------------|
|
| ~
| W Q S E.H
|---------------------------------||----------------|
|---------------------------------||-12--x-10s5-----|
|---------------------------------||-12--x-10s5-----|
|---------------------------------||-12--x-10s5-----|
|---------------------------------||----------------|
|---------------------------------||----------------|


1.
Bb5 F5 G5 F5 C5 Bb5 F5 G5
2/4 4/4
Q S E. Q Q Q S E.Q Q Q S E. W +W
| | | | | | | | | | | | | | |
/ x / / / / x / / / / x / / /

Gtr V
~~ ~
E E S E. H Q S E.H Q E. S W E E H.
|-------------------|----------------|--------------|-----------|-------------||
|----3-x-10--12-----|-12--x-10s5-----|-3--10-----10s|=12--------|-12---------o||
|-/3-3-x-10--12-----|-12--x-10s5-----|-3--10-----10s|=12--------|-12----------||
|-/3---x-10--12-----|-12--x-10s5-----|-3--10-----10s|=12--------|-12----------||
|-------------------|----------------|--------------|-----------|------------o||
|-------------------|----------------|--------------|-----------|-------------||


2.
F5 C5 Bb5 F5 G5
Q S E.Q Q Q S E. H W W
| | | | | | | | |
/ x / / / / x / /

~ ~~ ~ ~~
Q S E.H E E S E. H Q S E.H E E S E. H
|----------------|------------------|---------------|------------------|
|-12--x-10s5-----|----3-x-10--12----|-12--x-10s5----|----3-x-10--12----|
|-12--x-10s5-----|-/3-3-x-10--12----|-12--x-10s5----|-/3-3-x-10--12----|
|-12--x-10s5-----|-/3---x-10--12----|-12--x-10s5----|-/3---x-10--12----|
|----------------|------------------|---------------|------------------|
|----------------|------------------|---------------|------------------|


Bb5 F5 G5
2/4 4/4
W Q S E. W
| | | |
/ x / /

~
Q S E.H Q E. +S W
|---------------|----------------|-------||
|-12--x-10s5----|-3--10-----(10)s|=12----||
|-12--x-10s5----|-3--10-----(10)s|=12----||
|-12--x-10s5----|-3--10-----(10)s|=12----||
|---------------|----------------|-------||
|---------------|----------------|-------||


Interlude
Bb5 C5 Bb5
W W W
| | |
/ / /

Gtr IV
Q S E. E S S E E H E. S +E S S S S S S S S E +Q Q
|------0---1--0----6--5-----|-------3----------3-|-3-----3-----3-(3)-----|
|---------------6-----------|----------6-(6)-5---|---6-----6-------------|
|---------------------------|--------------------|-----3-----3-----------|
|---------------------------|--------------------|-----------------------|
|---------------------------|--------------------|-----------------------|
|---------------------------|--------------------|-----------------------|
|
| Gtr V
| H +Q +E. +S H. Q W
|---------------------------|--------------------|-----------------------|
|---------------------------|--------------------|-----------------------|
|-3-------(3)-----(3)---(3)s|=5------------------|-3---------------------|
|-3-------(3)-----(3)---(3)s|=5------------------|-----------------------|
|---------------------------|--------------------|-----------------------|
|---------------------------|--------------------|-----------------------|


C5 Bb5 C5
W W W
| | |
/ / /

W H S S S S +Q W
|----------------|---------0---------|------------------||
|----------------|-------6-----------|------------------||
|----------------|-----------7-------|------------------||
|----------------|-------------8-(8)-|------------------||
|----------------|-------------------|------------------||
|----------------|-------------------|------------------||
|
| E. S Q. E Q H. Q H E E S S S S
|----------------|-------------------|------------------||
|----------------|-------------------|------------------||
|-5---------5-5s=|=3--------------3s=|=5----7-7-7s5-3s5-||
|----------------|-------------------|------------------||
|----------------|-------------------|------------------||
|----------------|-------------------|------------------||


Out-Chorus
1.,2.
G5 F5 C5 Bb5 F5 G5 G5 F5 C5 Bb5 F5 G5
Q S E.Q Q Q S E. Q Q Q S E.Q Q Q S E. Q Q
| | | | | | | | | | | | | | | | | | | |
/ x / / / / x / / / / x / / / / x / / /

~ ~~ ~ ~~
Q S E.H E E S E. H Q S E.H E E S E. H
||-----------------|-------------------|----------------|---------------------||
||o-12--x-10s5-----|----3-x-10--12-----|-12--x-10s5-----|----3-x-10--12------o||
||--12--x-10s5-----|-/3-3-x-10--12-----|-12--x-10s5-----|-/3-3-x-10--12-------||
||--12--x-10s5-----|-/3---x-10--12-----|-12--x-10s5-----|-/3---x-10--12-------||
||o----------------|-------------------|----------------|--------------------o||
||-----------------|-------------------|----------------|---------------------||


3.
Bb5 F5 G5
Q S E. Q Q
| | | | |
/ x / / /

Gtr I
H E. S +S E S
|------------------------------|
|------------------------3-----|
|-------------3--------------0-|
|------------------0-(0)-------|
|------------------------------|
|-------------3--3----3----3---|
| H E E E E
|
| Gtr V
| E E S E. H
|------------------------------|
|----3-x-10--12----------------|
|-/3-3-x-10--12----------------|
|-/3---x-10--12----------------|
|------------------------------|
|------------------------------|


+W +W
| |
/ /

E. S +S E S E. S +S E S W
|------------------3----------------3-|---------*|
|---3----------3-----3----------3-----|---3-----*|
|-------------------------------------|---0-----*|
|--------0-(0)------------0-(0)-------|---------*|
|-------------------------------------|---------*|
|---3--3----3----3---3--3----3----3---|---3-----*|
| E E E E E E E E
|
| +W +W
|-------------------------------------|---------*|
|-(12)--------------------------------|-(12)----*|
|-(12)--------------------------------|-(12)----*|
|-(12)--------------------------------|-(12)----*|
|-------------------------------------|---------*|
|-------------------------------------|---------*|



Duration Legend
---------------
W - whole; H - half; Q - quarter; E - 8th; S - 16th; T - 32nd; X - 64th; a - acciaccatura
+ - note tied to previous; . - note dotted; .. - note double dotted
Uncapitalized letters represent notes that are staccato (1/2 duration)
Irregular groupings are notated above the duration line
Duration letters will always appear directly above the note/fret number it represents the
duration for. Duration letters with no fret number below them represent rests. Multi-
bar rests are notated in the form Wxn, where n is the number of bars to rest for. Low
melody durations appear below the staff

Tablature Legend
----------------
h - hammer-on
p - pull-off
b - bend
pb - pre-bend
r - bend release (if no number after the r, then release immediately)
/ - slide into or out of (from/to "nowhere")
s - legato slide
S - shift slide
- natural harmonic
[n] - artificial harmonic
n(n) - tapped harmonic
~ - vibrato
tr - trill
T - tap
TP - trem. picking
PM - palm muting
n/ - tremolo bar dip; n = amount to dip
n - tremolo bar down
n/ - tremolo bar up
/n - tremolo bar inverted dip
= - hold bend; also acts as connecting device for hammers/pulls
<> - volume swell (louder/softer)
x - on rhythm slash represents muted slash
o - on rhythm slash represents single note slash

Misc Legend
-----------
| - bar
|| - double bar
||o - repeat start
o|| - repeat end
*| - double bar (ending)
: - bar (freetime)
$ - Segno
& - Coda
Tempo markers - = BPM(8/16=s8/s16), where s8 = swing 8ths, s16 = swing 16ths

-----------------------------
|  акорди, навчання, відео  |
|     http://akords.org     |
-----------------------------

 (голосів: 0)
   Інші пісні:
  • Just Push Play
  • Rag Dol
  • Two Of Us
  • If I Fell 2
  • Black Chamber
  •  
    Шановний відвідувач, Ви зайшли на сайт як незареєстрований користувач. Ми рекомендуємо Вам реєструватися або зайти на сайт під своїм ім'ям.

    Додавання коментаря

    Ім'я:*
    E-Mail:*
    Коментар:
    Введіть два слова, показані на зображенні: *
     
      

    BLIBL-створити сайт безкоштовно