|  
 
:  
  : :  
      ?    

  |

akords.org » A » Aerosmith » Cryin 3

Aerosmith - Cryin 3 

Song: CRYING
Artist: Aerosmith
Album: Get A Grip
Composer: S.Tyler, J.Perry, A.Rhodes


-Intro-
A#5 C5 F5 G5
e:-x----x----x----x----|-------------------|
B:-x----x----x----x----|-------------------|
G:-3----5----x----x----|---6h7-7-7-6-5-----|
D:-3----5----3----5----|---------------8---|
A:-1----3----3----5----|-------------------|
E:-x----x----1----3----|-------------------|


e:-x----x----x----x----|-------------------------|
B:-x----x----x----x----|-------------------------|
G:-3----5----x----x----|----6h7-7-7-6-5----------|
D:-3----5----3----5----|----------------8h10-8---|
A:-1----3----3----5----|-------------------------|
E:-x----x----1----3----|-------------------------|


A#5 C5 F5 G5
e:-x----x----x----x----|-------------------|
B:-x----x----x----x----|-------------------|
G:-3----5----x----x----|---6h7-7-7-6-5-----|
D:-3----5----3----5----|---------------8---|
A:-1----3----3----5----|-------------------|
E:-x----x----1----3----|-------------------|


e:-x----x----x----x----|---------------------|
B:-x----x----x----x----|---------------------|
G:-3----5----x----x----|---6h7-7-7-6-5-------|
D:-3----5----3----5----|---------------10-8--|
A:-1----3----3----5----|---------------------|
E:-x----x----1----3----|---------------------|


-Verse 1-

There was a time when i was so brokenhearted
A E F#m C#m
e:-------0----------------0------|--------2------------------4------|
B:-----2---2------------0---0----|------2---2--------------5---5----|
G:---2-------2--------1-------0--|----2-------2----------6-------6--|
D:-2-----------------------------|-------------------6--------------|
A:------------------2------------|--4-------------------------------|
E:-------------------------------|----------------------------------|


love wasnt much of a friend of mine
D A E
e:-------2------------------0------------0------0------0------|
B:-----3---3--------------2---2--------0---0------0------0----|
G:---2-------2----------2-------2----1-------1------1------1--|
D:-0------------------2---------------------------------------|
A:---------------------------------2--------------------------|
E:------------------------------------------------------------|


the tables have turned, yeah
A E
e:-------0-------------------0---------|
B:-----2---2---------------0---O-------|
G:---2-------2-----------1-------1-----|
D:-2-----------------------------------|
A:---------------------2---------------|
E:-------------------------------------|

couse me and them ways have parted
F#m C#m
e:---------2-----------------------4-------|
B:-------2---2-------------------5---5-----|
G:-----2-------2---------------6-------6---|
D:---------------------------6-------------|
A:---4-------------------------------------|
E:-----------------------------------------|



that kind of love was the killin kind
D A E
e:--------2-----------------0--------------0------0-------O------|
B:------3---3-------------2---2----------0---0------0-------O----|
G:----2-------2---------2-------2------1-------1------1-------1--|
D:--O-----------------2------------------------------------------|
A:------------------------------2--------------------------------|
E:---------------------------------------------------------------|



G D G D
all i want is someone I cant resist

e:-------------------------------------------------------------|
B:-------------------------------------------------------------|
G:-------------------------------------------------------------|
D:-----4-7-4---------4-7-4-0-------4-7-4-5-------4-5-7---------|
A:-5-5-------0-----5-------------5-------------5---------------|
E:-------------------------------------------------------------|

C G E
I know all I need to know by the way that I got kissed

e:--------------------------------------------------------------|
B:--------------------------------------------------------------|
G:-------------------------------------1--1--1--1--1--1--1--1---|
D:-------4-5-7-----------3-4-6---------2--2--2--2--2--2--2--2---|
A:---5-5-------------4-4---------------2--2--2--2--2--2--2--2---|
E:--------------------------------------------------------------|

-Chorus-
A E
I was cryin when I met you

e:-------0------------0--------|
B:-----2---2--------0---0------|
G:---2-------2----1-------1----|
D:-2---------------------------|
A:--------------2--------------|
E:-----------------------------|

F#m D A
now Im tryin to forget you

e:--------2------------2--------------0---------|
B:------2---2--------3---3----------2---2-------|
G:----2-------2----2-------2------2-------2-----|
D:---------------0--------------2---------------|
A:-4--------------------------------------------|
E:----------------------------------------------|

E D
your love is sweet misery

e:-------------0-----------2-------2------2----------|
B:-----------0---0-------3---3-------3------3--------|
G:---------1-----------2-------2-------2------2------|
D:-------------------0-------------------------------|
A:-------2-------------------------------------------|
E:---------------------------------------------------|

A E
I was cryin just to get you

e:-------0-------------0---------|
B:-----2---2---------0---0-------|
G:---2-------2-----1-------1-----|
D:-2-----------------------------|
A:---------------2---------------|
E:-------------------------------|
C#m D A
now im dyin couse I let you

e:-------4--------------2---------------0---------|
B:-----5---5----------3---3-----------2---2-------|
G:---6-------6------2-------2-------2-------2-----|
D:-6--------------0---------------2---------------|
A:------------------------------------------------|
E:------------------------------------------------|

E D
do what you do, down on me

e:---------0---------------2-----------2-------|
B:-------0---0-----------3---3---------3-------|
G:-----1-------1-------2-------2-------2-------|
D:-------------------0-----------------0-------|
A:---2-----------------------------------------|
E:---------------------------------------------|



-Intro-

now theres not even breathinroom
between pleasure and plain
yeah, you cry when were makin love
must be one and the same



-Verse 2-

its down on me
yeah I got to tell you one thing
its been on my mind, girl I gotta say
were partners in crime
you got that certain something
what you give to me takes my breath away
now the world out onthe street is the devils in your kiss
if our love goes up in flames its a fire I cant resist


-Chorus-

-Intro-



-Bridge-
D# A#
Couse what you got inside
D# A#
aint where your love should stay
G# D#
yeah, our love, sweet love, aint love
E
till you give your heart away


-Chorus-
A E
I was cryin when I met you
C#m D A
now Im tryn to forget you
E D
your love is sweet misery
A E
I was cryin just to get you
F#m D A
now Im dy---in just to let you
E D
do what you do what you do down to me,

baby, baby, baby


-Harmonic solo-

A - E - C#m - D - A - E - D

A - E - F#m - D - A - E - D

Etc.....


Hope you like this. enjoy.

-----------------------------
|  , ,   |
|     http://akords.org     |
-----------------------------

 (: 0)
    :
  • Cryin 2
  • All I Have To Give 6
  • The End
  • Soldier Of Love
  • Chains
  •  
    , . '.

     
      

    BLIBL-