Зробити стартовою  |  Додати в вибране
 
Пошук по сайту:  
  логін: пароль:  
    Реєстрація на сайті   Нагадати пароль?    

Видавництво Симфонія | Книжкова фабрика

akords.org » A » Aerosmith » Big Ten Inch Record 2
Знайти необхідні акорди

Aerosmith - Big Ten Inch Record 2  табулатура

#----------------------------------PLEASE NOTE---------------------------------#
#This file is the author's own work and represents their interpretation of the #
#song. You may only use this file for private study, scholarship, or research. #
#------------------------------------------------------------------------------#

BIG TEN INCH RECORD
As recorded by Aerosmith
(From the 1975 Album TOYS IN THE ATTIC)

Transcribed by tonedeafidiot


Words and Music by Fred Weismantel

Gtr I (E A D G B E) - 'Joe Perry'
Gtr II (E A D G B E) - 'Joe Perry Dub'
Gtr III (E A D G B E) - 'Harmonica'
Gtr IV (E A D G B E) - 'Steve Tyler'

Intro Verse
Moderately Fast Q=176(8=s8)
4/4
Gtr IV
W H Q E E E Q E Q E E
|-----------------|---------------|-----------------|
|-----------------|---------------|-----------------|
|-----------------|-------------5-|-5-5---5-5---5-5-|
|-----------------|---------------|-----------------|
|-----------------|---------------|-----------------|
|-----------------|---------------|-----------------|
|
| Gtr I
| PM--------|
| E E E E E E E E Q E E Q E E Q E E E E E E
|-----------------|---------------|-----------------|
|-----------------|---------------|-----------------|
|---------8-7---6-|-5--4-3--------|-----------------|
|-----------------|-------------6s|=7---9-7-7-7-9-7-|
|-7-7---7---------|-------------4s|=5---5---5---5---|
|-----------------|---------------|-----------------|


+E E Q +E Q E E E Q E Q E +Q Q Q. E
|----------------------|-----------------|---------------------|
|----------------------|-----------------|---------------------|
|-(5)----------------2-|-5-5-5---5-5---5-|-(5)--------------2--|
|-----10s4---(4)-------|-----------------|---------------------|
|----------------------|-----------------|---------------------|
|----------------------|-----------------|---------------------|
|
| PM--------------| PM----------|
| E E E E E E e E E E E E E E E E E E E E E E E E
|----------------------|-----------------|---------------------|
|----------------------|-----------------|---------------------|
|----------------------|-----------------|---------------------|
|--7---7-9-7--7--7-----|-----------------|------------------6s=|
|--5-----5----5----5-6s|=7-7-9-7-7-7-9-7-|--7--7-9-7-x--7-x----|
|--------------------4s|=5-5-5-5-5-5-5-5-|--5--5-5-5-x--5-x----|


E E E E +E Q E +E E Q Q E E
|-------------------|--------------------|
|-------------------|----------------5-5-|
|-5-5---5-(5)-5---5-|-(5)-5s0------------|
|-----7-------------|--------------------|
|-------------------|--------------------|
|-------------------|--------------------|
|
| PM------------|
| E E E E E E E E E E E E E E E E
|-------------------|--------------------|
|-------------------|--------------------|
|---x-------------7-|--------------------|
|-7-7-9-7-10----x---|-----7-9-7-10-------|
|-----5----5----x---|-----5-5----5---5s7-|
|-------------------|--------------------|


|--3---|
Q Q Q Q E E +Q E E +E E E E
|-3-3----3-3--3-3-|-(3)------------------|
|-----------------|----------------------|
|-----------------|--------5-(5)-4-2-2---|
|-----------------|----------------------|
|-----------------|----------------------|
|-----------------|----------------------|
|
| q H. H. E E
|-----------------|----------------------|
|-----------------|----------------------|
|-----------------|----------------------|
|-9---------------|------------------6s==|
|-7---------------|------------------4s==|
|-----------------|----------------------|


Chorus
Q E E +Q E E +Q. Q E E E
|------------------|----------------3-|
|------------------|------------5-5---|
|-2--4-5-(5)---5-5-|-(5)--------------|
|------------------|------------------|
|------------------|------------------|
|------------------|------------------|
|
| Q E E E E E E +Q E E E E E E
|------------------|--------5---5-----|
|------------------|--------5---5-----|
|------------------|--------5---5-----|
|-7--9---10----9-7-|-(7)--------------|
|-5--5----5----5-5-|-(5)------------6s|
|------------------|----------------4s|


+Q E E +Q E E +Q. H E
|-(3)---------------------|-------------------|
|------5-3-(3)----3-------|-----------------3-|
|---------------------5---|-(5)---------------|
|-------------------------|-------------------|
|-------------------------|-------------------|
|-------------------------|-------------------|
|
| PM-------------------| PM
| |-3-| |--3--|
| Q E E E E E E E E E E E E E E E E
|-------------------------|-----5---5---------|
|-------------------------|-----5---5---5-----|
|-------------------------|-----5---5---5-----|
|-------------------------|-----------------9-|
|--7---9-7-10p7-7-9p7---7-|--7----------------|
|--5---5-5--5---5-5-----5-|--5----------------|


+E Q Q Q E +E Q E Q E E
|------------------|------------------|
|-(3)-5----------2-|-(2)-5----------3-|
|--------4---2-----|--------4s2-------|
|------------------|------------------|
|------------------|------------------|
|------------------|------------------|
|
| PM PM
| E Q E E E E E E Q E E E E E
|------------------|------------------|
|------------------|------------------|
|--7-----7---7-----|--9-----9---9-----|
|--9-----9---9---9-|--9-----9---9---9-|
|--7---------------|------------------|
|------------------|------------------|


+E E E E E E E E +Q E Q Q E
|-------------------|--------5----5-----5----|
|-(3)-3-3-5-1-------|------------------------|
|-------------2-2-2-|-(2)--------------------|
|-------------------|------------------------|
|-------------------|------------------------|
|-------------------|------------------------|
|
| PM-------------|
| |--3--|
| E Q E E E E E +Q E E E E E E E
|-------------------|------------------------|
|-------------------|------------------------|
|---------9-9-9-x---|------------------------|
|--7------9---------|------------------------|
|--9--------------7-|-(7)--9-7-10-7-9-7---7--|
|--0--------------5-|-(5)--5-5--5-5-5-5---5--|


Guitar Solo
+Q H. W
|-(5)-------------------|---------------------------|
|-----------------------|---------------------------|
|-----------------------|---------------------------|
|-----------------------|---------------------------|
|-----------------------|---------------------------|
|-----------------------|---------------------------|
|
| Gtr II
| PM PM PM PM
| |--3--| |--3---| |--3--|
| E E E E E E E E E E E E E E E H
|-----------------------|---------------------------|
|-----------------------|---------------------------|
|-------7p5-----5-------|--7p=5-----5h6-------------|
|-----7-------7---7---7-|---------7-------7---------|
|-----------------------|---------------------------|
|-----------------------|---------------------------|
|
| Gtr I
| PM-------------------------------------------
| Q E E E E E E +E E E E E E E E
|-----------------------|---------------------------|
|-----------------------|---------------------------|
|-----------------------|---------------------------|
|-----------------------|---------------------------|
|--7----5---5---4-4s7-7-|-(7)---7---5---5---4-4s7-7-|
|--5----3---3---2-2-0-5-|-(5)---5---3---3---2-2-0-5-|


W W
|-------------------------|----------------------------------|
|-------------------------|----------------------------------|
|-------------------------|----------------------------------|
|-------------------------|----------------------------------|
|-------------------------|----------------------------------|
|-------------------------|----------------------------------|
|
| PM PM
| |--3--| |--3--|
| E E E E E E E E E E E E E a +E E a +Q.
|-------------------------|----------------------------------|
|-------------------------|-----------0b2-(0)---0b2-(0)------|
|-----7p5-----5b5.5-------|-7p5-----5------------------------|
|---7-------7-------7---7-|-------7--------------------------|
|-------------------------|----------------------------------|
|-------------------------|----------------------------------|
|
|-------------------| PM-------|
| E E E E E E E E E E E E E E E E
|-------------------------|----------------------------------|
|-------------------------|----------------------------------|
|-------------------------|----------------------------------|
|-------------------------|------------------------------7---|
|-7-7-5---5---4-----4s7-7-|-7---7---5------5--4------4sx-5---|
|-5-5-3---3---2-----2-0-5-|-5---5---3------3--2------2-0-----|


Gtr II
|--3---|
+E E E a +E +E +E E E E +E E E E E E E E
|---------------------------------|-----------5------5-|
|-(0)-5---------------------------|---------5---7s=8---|
|-------7-7b8==(7)-(7)r(7)p5------|-----5h6------------|
|-----------------------------7-7-|-(7)----------------|
|---------------------------------|--------------------|
|---------------------------------|--------------------|
|
| Gtr I
| Q Q Q E E +E E Q Q E E
|---------------------------------|--------------------|
|---------------------------------|--------------------|
|---------------------------------|--------------------|
|--7----5-----------4--------/x-7-|-(7)-7-5---4---/x---|
|--5----3-----------2---------0-5-|-(5)-5-3---2----0-7-|
|---------------------------------|------------------5-|


E E E E Q E a +E +E E E Q. E E
|--7h=8-5-------------------|-------------------------|
|---------8p7----7-7b8==(7)r|=(7)p5---------------7b8-|
|---------------------------|-------7-5tr6------------|
|---------------------------|-------------------------|
|---------------------------|-------------------------|
|---------------------------|-------------------------|
|
| PM PM---------|
| +E E E E E E E E +E E E E E E E E
|---------------------------|-------------------------|
|---------------------------|-------------------------|
|---------------------------|-------------------------|
|---------------------------|---------------------9---|
|-(7)-7-5-5-4-4-/x-------7--|-(7)-7-5-5----4-4-/x-7---|
|-(5)-5-3-3-2-2--0-------5--|-(5)-5-3-3----2-2--0-----|


Gtr IV
W W
|--------------------------|-------------------------------|
|--------------------------|-------------------------------|
|--------------------------|-------------------------------|
|--------------------------|-------------------------------|
|--------------------------|-------------------------------|
|--------------------------|-------------------------------|
|
| Gtr II
| +E E E E +E Q E +E E E E +E E E E
|-------5-----------5------|---------5-------------5-------|
|-(7)-5---7-(7)b7.5------7-|-(7)b7.5-----7-(7)b7.5-----7b8-|
|--------------------------|-------------------------------|
|--------------------------|-------------------------------|
|--------------------------|-------------------------------|
|--------------------------|-------------------------------|
|
| Gtr I
| +E E Q E E E E +E E Q Q Q
|--------------------------|-------------------------------|
|--------------------------|-------------------------------|
|--------------------------|-------------------------------|
|-(9)-9-7----6s=====4-/x-9-|-(9)-----9-7----6--------4-----|
|-(7)-7-5----4s=====2--2-7-|-(7)-----7-5----4--------2-----|
|--------------------------|-------------------------------|


W H. E E
|--------------------------------|-----------------------|
|--------------------------------|-----------------------|
|--------------------------------|------------------5----|
|--------------------------------|-----------------------|
|--------------------------------|-----------------------|
|--------------------------------|-----------------------|
|
| |--3--| |---3---|
| +E E E E E E E E E E +Q E E +Q. E
|-----5--------------------------|--------5-(5)---------|
|-(7)---8-5----------------------|--------5-(5)---------|
|-------------8p=7p==5-----------|--------5-(5)---------|
|------------------------7-7---7-|-(7)----5-(5)---------|
|--------------------------------|--------7-(7)---------|
|--------------------------------|-----------------------|
|
| PM-------------------|
| Q E E S S E S S E +Q E E +Q E E
|--------------------------------|-----------------------|
|--------------------------------|-----------------------|
|--------------------------------|-----------------------|
|--------------------------------|------------------6s===|
|--7----9---7---10p7---7---9p7-7-|-(7)--x-7-(7)-----4s===|
|--5----5---5----5-----5---5---5-|-(5)--x-5-(5)----------|


Verse
+E E E E Q E E +E Q. Q. E
|------------------|---------------------|
|------------------|---------------------|
|-(5)-5-2---5--2-5-|-(5)-5-------------2-|
|------------------|---------------------|
|------------------|---------------------|
|------------------|---------------------|
|
| H. E E +Q E Q E E E
|------------------|---------------------|
|----------------8-|-(8)-----------8-----|
|----------------x-|---------------7-----|
|--7---------------|--------x------------|
|--5-----------5---|--------x----------6s|
|------------------|-------------------4s|


E E E E E Q E +H Q. E
|-----------------|---------------------|
|-----------------|---------------------|
|-5-5-5-2-4-2---5-|-(5)--------------2--|
|-----------------|---------------------|
|-----------------|---------------------|
|-----------------|---------------------|
|
| PM----------|
| E E E E E E E E E E E E E E E E
|-----------------|---------------------|
|-----------------|---------------------|
|-----------------|---------------------|
|-----------------|------------------6--|
|-7-7-9-7-7-7-9-7-|--7--7-9-7-x--7-x----|
|-5-5-5-5-5-5-5-5-|--5--5-5-5-x--5-x----|


|---3---|
Q Q Q E Q E +E Q Q E Q
|----------------------|--------------------|
|----------------------|--------------5-5---|
|-5---5---5----5-5---5-|-(5)-5--------------|
|----------------------|--------------------|
|----------------------|--------------------|
|----------------------|--------------------|
|
| PM---------------|
| E E E E E E E E E E E E E E E E
|----------------------|--------------------|
|----------------------|--------------------|
|---x----------------7-|--------------------|
|-7-7---9---7-10---x---|-----7-9-7-10-------|
|-------5------5---x---|-----5-5----5---5s7-|
|----------------------|--------------------|


|--3---|
Q Q Q Q E E +Q E E +E E E E
|-3-3----3-3--3-3-|-(3)------------------|
|-----------------|----------------------|
|-----------------|--------5-(5)-4-2-2---|
|-----------------|----------------------|
|-----------------|----------------------|
|-----------------|----------------------|
|
| q H. H. E E
|-----------------|----------------------|
|-----------------|----------------------|
|-----------------|----------------------|
|-9---------------|------------------6s==|
|-7---------------|------------------4s==|
|-----------------|----------------------|


Chorus
Q E E +Q E E +Q. Q E E E
|------------------|------------5-2-5-|
|--------------3---|------------------|
|-2--4-5-(5)-----2-|-(2)--------------|
|------------------|------------------|
|------------------|------------------|
|------------------|------------------|
|
| Gtr I
| Q E E E E E E +Q E E E E E E
|------------------|--------5---5-----|
|------------------|--------5---5-----|
|------------------|--------5---5-----|
|-7--9---10----9-7-|-(7)--------------|
|-5--5----5----5-5-|-(5)------------6s|
|------------------|----------------4s|


+Q E E +Q E E +H Q. E
|-(5)--2-5-(5)----5---0---|-(0)----------------|
|-------------------------|------------------3-|
|-------------------------|--------------------|
|-------------------------|--------------------|
|-------------------------|--------------------|
|-------------------------|--------------------|
|
| PM-------------------| PM
| |-3-| |--3--|
| Q E E E E E E E E E E E E E E E E
|-------------------------|-----5---5----------|
|-------------------------|-----5---5----5-----|
|-------------------------|-----5---5----5-----|
|-------------------------|------------------9-|
|--7---9-7-10p7-7-9p7---7-|--7-----------------|
|--5---5-5--5---5-5-----5-|--5-----------------|


E Q Q Q E +E Q E Q E E +E E E E E E E E +Q E E E E E E
|----------------|------------------|-------------------|---------------------|
|-3-5--0-------3-|-(3)-5----------3-|-(3)-3-3-5---------|---------1----1---1--|
|----------2-----|--------4s2-------|-----------5-2-2-2-|-(2)-----------------|
|----------------|------------------|-------------------|---------------------|
|----------------|------------------|-------------------|---------------------|
|----------------|------------------|-------------------|---------------------|
|
| PM PM PM--------------|
| E Q E E E E E E Q E E E E E E Q E E E E E E E E E E E E E
|----------------|------------------|-------------------|---------------------|
|----------------|------------------|-------------------|---------------------|
|-7----7---7-----|--9-----9---9-----|---------9-9-9-x---|---------------------|
|-9----9---9---9-|--9-----9---9---9-|--7------9---------|------------------7--|
|-7--------------|------------------|--9--------------7-|--7--7-9-7-10-7-x-5--|
|----------------|------------------|--0--------------5-|--5--5-5-5--5-5-x----|


Verse
E E E E Q E E +E Q. Q. E
|------------------|--------------------|
|------------------|--------------------|
|--5--5-2---5--2-5-|-(5)-5------------2-|
|------------------|--------------------|
|------------------|--------------------|
|------------------|--------------------|
|
| +H. E E Q E E E E E E
|------------------|--------------------|
|------------------|--------------------|
|----------------7-|---------7----7-----|
|-(7)----------x-7-|-------x-7----7-----|
|-(5)----------x---|-------x----------6s|
|------------------|------------------4s|
|
| Gtr II
| ~~
| W E E E E E E Q
|------------------|--------------------|
|------------------|--------------------|
|------------------|---------7----7-----|
|------------------|-----------9--------|
|------------------|-----7h9------------|
|------------------|--------------------|


E E E E E Q E +H Q. E
|-----------------|--------------------------|
|-----------------|--------------------------|
|-5-5-5-2-4-2---5-|-(5)------------------2---|
|-----------------|--------------------------|
|-----------------|--------------------------|
|-----------------|--------------------------|
|
| PM----------|
| E E E E E E E E E E E E E E E E
|-----------------|--------------------------|
|-----------------|--------------------------|
|-----------------|--------------------------|
|-----------------|----------------------6s==|
|-7-7-9-7-7-7-9-7-|--7--7----9-7-x--7--x-----|
|-5-5-5-5-5-5-5-5-|--5--5----5-5-x--5--x-----|
|
| W E Q. E Q.
|-----------------|--------------5-----------|
|-----------------|--------------------------|
|-----------------|-----5tr6-----------------|
|-----------------|--------------------------|
|-----------------|--------------------------|
|-----------------|--------------------------|


|---3---|
Q Q Q E Q E +E Q Q E Q
|----------------------|---------------------|
|----------------------|---------------5-5---|
|-5---5---5----5-5---5-|-(5)-5---------------|
|----------------------|---------------------|
|----------------------|---------------------|
|----------------------|---------------------|
|
| PM---------------|
| E E E E E E E E E E E E E E E E
|----------------------|---------------------|
|----------------------|---------------------|
|---x----------------7-|---------------------|
|-7-7---9---7-10---x---|-----7-9-7-10--------|
|-------5------5---x---|-----5-5----5----5s7-|
|----------------------|---------------------|
|
| W Q. E E E Q
|----------------------|--------------10-----|
|----------------------|---------------------|
|----------------------|---------9s11--------|
|----------------------|---------------------|
|----------------------|---------------------|
|----------------------|---------------------|


|--3---|
Q Q Q Q E E +Q E E +E E E E
|-3-3----3-3--3-3-|-(3)------------------|
|-----------------|----------------------|
|-----------------|--------5-(5)-4-2-2---|
|-----------------|----------------------|
|-----------------|----------------------|
|-----------------|----------------------|
|
| q H. H. E E
|-----------------|----------------------|
|-----------------|----------------------|
|-----------------|----------------------|
|-9---------------|------------------6s==|
|-7---------------|------------------4s==|
|-----------------|----------------------|
|
| W W
|-----------------|----------------------|
|-----------------|----------------------|
|-----------------|----------------------|
|-----------------|----------------------|
|-----------------|----------------------|
|-----------------|----------------------|


Chorus
Q E E +Q E E +Q. Q E E E
|------------------|------------5-2-5-|
|--------------3---|------------------|
|-2--4-5-(5)-----2-|-(2)--------------|
|------------------|------------------|
|------------------|------------------|
|------------------|------------------|
|
| Q E E E E E E +Q E E E E E E
|------------------|--------5---5-----|
|------------------|--------5---5-----|
|------------------|--------5---5-----|
|-7--9---10----9-7-|-(7)--------------|
|-5--5----5----5-5-|-(5)------------6s|
|------------------|----------------4s|


+Q E E +Q E E +H Q. E
|-(5)--2-5-(5)----5---0---|-(0)----------------|
|-------------------------|------------------3-|
|-------------------------|--------------------|
|-------------------------|--------------------|
|-------------------------|--------------------|
|-------------------------|--------------------|
|
| PM-------------------| PM
| |-3-| |--3--|
| Q E E E E E E E E E E E E E E E E
|-------------------------|-----5---5----------|
|-------------------------|-----5---5----5-----|
|-------------------------|-----5---5----5-----|
|-------------------------|------------------9-|
|--7---9-7-10p7-7-9p7---7-|--7-----------------|
|--5---5-5--5---5-5-----5-|--5-----------------|


E Q Q Q E +E Q E Q E E +E E E E E E E E W
|----------------|------------------|-------------------|-----------------|
|-3-5--0-------3-|-(3)-5----------3-|-(3)-3-3-5---------|-----------------|
|----------2-----|--------4s2-------|-----------5-2-2-2s|=14--------------|
|----------------|------------------|-------------------|-----------------|
|----------------|------------------|-------------------|-----------------|
|----------------|------------------|-------------------|-----------------|
|
| PM PM
| E Q E E E E E E Q E E E E E E Q E E E E E Q E E E Q E
|----------------|------------------|-------------------|-----------------|
|----------------|------------------|-------------------|-----------------|
|-7----7---7-----|--9-----9---9-----|---------9-9-9-x---|-----------------|
|-9----9---9---9-|--9-----9---9---9-|--7------9---------|-----------5-----|
|-7--------------|------------------|--9--------------7-|-----5h6-7-------|
|----------------|------------------|--0--------------5-|-----------------|


Gtr I
PM-------------------------------------------------
|-3-| |-3-| |-3-| |-3-| |-3-| |-3-| |-3-| |-3-|
E E E E E E E E E E E E E E E E E E E E E E E E
|-------------------------|-------------------------|
|-------------------------|-------------------------|
|-------------------------|-------------------------|
|-------------------------|-------------------------|
|-------------------------|-------------------------|
|-5-5-5-5-5-5-5-5-5-5-5-5-|-5-5-5-5-5-5-5-5-5-5-5-5-|


---------------------------------------|
|-3-| |-3-| |-3-| |-3-|
E E E E E E E E E E E E E E E E E E E E
|-------------------------|-------------------|
|-------------------------|-------------------|
|-------------------------|-------------------|
|-------------------------|-------------------|
|-------------------------|-------------------|
|-5-5-5-5-5-5-5-5-5-5-5-5-|-5---5-5-5-5-5-----|


Harmonica Solo
Gtr III
|--3--|
E E E E E E Q. W
|--------------5--------|--------------------|
|-----------5-----------|--------------------|
|-----5h6---------------|--------------------|
|---7-------------------|--------------------|
|-----------------------|--------------------|
|-----------------------|--------------------|
|
| Gtr I
| PM---
| Q E E E E E E +E E E E E E E E
|-----------------------|--------------------|
|-----------------------|--------------------|
|-----------------------|--------------------|
|-7---9-------10----9-7-|-(7)-7-9-7-10---x---|
|-5---5--------5----5-5-|-(5)-5-5-5--5---5-7-|
|-----------------------|------------------5-|


|--3--| |--3--|
E E E E E E Q. E H E E E E
|--------------5--------|-5---------------------|
|-----------5-----------|-------------------5---|
|-----5h6---------------|-----------5-5h6-------|
|---7-------------------|-----------------------|
|-----------------------|-----------------------|
|-----------------------|-----------------------|
|
|---------------------| PM----------|
| E E E E E E E E E E E E E E E E
|-----------------------|-----------------------|
|-----------------------|-----------------------|
|-----------------------|-------9---------------|
|---------------------x-|-9---x-9---x-9---9-----|
|-7-7-9---7---10----x-x-|-7---x-----x-7---7-----|
|-5-5-5---5----5----x---|-----------------------|


Gtr IV
W W H. E E
|---------------------|-------------------------|------------------8-|
|---------------------|-------------------------|--------------------|
|---------------------|-------------------------|--------------------|
|---------------------|-------------------------|--------------------|
|---------------------|-------------------------|--------------------|
|---------------------|-------------------------|--------------------|
|
| Gtr III
| |--3--| |--3--| |--3--|
| E H E E E E E E E E E E E E E E E E E E +Q Q
|-5-------------------|-5-----------5-----------|-5--5-5-5-(5)-------|
|-------------------5-|-----------5-----------5-|----5-5-------------|
|-----------5-5h6-----|---5-5h6-------5-5h6-----|--------------------|
|---------------------|-------------------------|--------------------|
|---------------------|-------------------------|--------------------|
|---------------------|-------------------------|--------------------|
|
| Gtr I
| PM----------------------------------------|
| E E E E E E E E E E E E E E E E E E E E E E E E
|---------------------|-------------------------|--------------------|
|---------------------|-------------------------|--------------------|
|---9---9---9---------|-------------------------|--------------------|
|-x-9---9---9---------|---7-----------------7---|----7---7-----7---7-|
|-7---------------x---|-x-7-----7---7---x---7---|----7---7-----7---5-|
|-----------------x---|-5-------5---5---x-------|--------------------|


Verse
+E Q Q Q E E Q. H E E Q E Q E Q H E E
|-(8)-8--8--8--5-|-8-8--------------|-8--8-8--8-5---5s|=3-------------8--|
|----------------|------------------|-----------------|------------------|
|----------------|------------------|-----------------|------------------|
|----------------|------------------|-----------------|------------------|
|----------------|------------------|-----------------|------------------|
|----------------|------------------|-----------------|------------------|
|
| Gtr I PM-------------| PM------------------|
| W Q E E E E E E H. E E E E E E E E E E
|----------------|------------------|-----------------|------------------|
|----------------|------------------|-----------------|------------------|
|----------------|------------7-----|-----------------|------------------|
|--7-------------|-7----7-7-x-7-----|-----------------|---7-x-----7-x-7--|
|--5-------------|-5----5-5-x-----7-|-7-----------7-7-|-x-7-x-x-7-7-x-x--|
|----------------|----------------5-|-5-----------5-5-|-x-----x-5--------|


|--3---|
+E E E E Q E E +E Q. H Q Q Q Q E E +Q Q E E E E
|-(8)-8-8---8---5-8-|-(8)-8--------------|-7-7----7-7--5-8-|-(8)-----8-7-5-5--|
|-------------------|--------------------|-----------------|------------------|
|-------------------|--------------------|-----------------|------------------|
|-------------------|--------------------|-----------------|------------------|
|-------------------|--------------------|-----------------|------------------|
|-------------------|--------------------|-----------------|------------------|
|
| PM---------------------|
| Q E E E E E E E E E E E E E E q H. H. E E
|-------------------|--------------------|-----------------|------------------|
|-------------------|--------------------|-----------------|------------------|
|---------7---7-----|-----7------7-7-x-x-|-9---------------|------------------|
|--7----7-7---7---x-|--x--7----7-7-7-x-x-|-9---------------|---------------6--|
|--5----5---------x-|--x-------x-5---x---|-7---------------|---------------4--|
|-------------------|--------------------|-----------------|------------------|


Chorus
Q E E +Q E E Q H E E
|-5--2-5-(5)---5---|----------------8-|
|----------------7s|==3---------------|
|------------------|------------------|
|------------------|------------------|
|------------------|------------------|
|------------------|------------------|
|
| Q E E E E E E +Q E E E E E E
|------------------|--------5---5-----|
|------------------|--------5---5-----|
|------------------|--------5---5-----|
|-7--9---10----9-7-|-(7)--------------|
|-5--5----5----5-5-|-(5)------------6s|
|------------------|----------------4s|


+Q E E +Q E E +H Q. E
|-(8)--5-5-(5)----5---0---|-(0)--------------7-|
|-------------------------|--------------------|
|-------------------------|--------------------|
|-------------------------|--------------------|
|-------------------------|--------------------|
|-------------------------|--------------------|
|
| PM-------------------| PM
| |-3-| |--3--|
| Q E E E E E E E E E E E E E E E E
|-------------------------|-----5---5----------|
|-------------------------|-----5---5----5-----|
|-------------------------|-----5---5----5-----|
|-------------------------|------------------9-|
|--7---9-7-10p7-7-9p7---7-|--7-----------------|
|--5---5-5--5---5-5-----5-|--5-----------------|


+E Q Q Q E +E a Q Q. Q
|-(7)-7--3-------7-|-(7)-5s7---0----------|
|------------5-----|----------------------|
|------------------|----------------------|
|------------------|----------------------|
|------------------|----------------------|
|------------------|----------------------|
|
| PM PM---------|
| E Q E E E E E E E E E E E E E
|------------------|----------------------|
|------------------|----------------------|
|--7-----7---7-----|--9----x-x-9--x-9-x-x-|
|--9-----9---9---9-|-------x-x-9--x-9-x-x-|
|--7---------------|----------------------|
|------------------|----------------------|


Outro
H.=H
E E E E E E E E +Q H.
|-5-3-0------------|------------------------|
|--------3-3-3-5-1-|-(1)--------------------|
|------------------|------------------------|
|------------------|------------------------|
|------------------|------------------------|
|------------------|------------------------|
|
| q H. E a E E E E E E E
|------------------|------------------------|
|------------------|-----8s10----8----------|
|-9----------------|-----------------9---7--|
|-9----------------|------------------------|
|-7----------------|------------------------|
|------------------|------------------------|


Gtr I
~~~~~~~~~~~~~~
E E E E E E E E Q +H. +W Wx3
|-----------------:-------------:------------:--------*|
|-----------------:-------------:------------:--------*|
|---5-------------:-4--(4)------:-(4)--------:--------*|
|-------7---5-----:-------------:------------:--------*|
|-------------7---:-------------:------------:--------*|
|-----------------:-------------:------------:--------*|



Duration Legend
---------------
W - whole; H - half; Q - quarter; E - 8th; S - 16th; T - 32nd; X - 64th; a - acciaccatura
+ - note tied to previous; . - note dotted; .. - note double dotted
Uncapitalized letters represent notes that are staccato (1/2 duration)
Irregular groupings are notated above the duration line
Duration letters will always appear directly above the note/fret number it represents the
duration for. Duration letters with no fret number below them represent rests. Multi-
bar rests are notated in the form Wxn, where n is the number of bars to rest for. Low
melody durations appear below the staff

Tablature Legend
----------------
h - hammer-on
p - pull-off
b - bend
pb - pre-bend
r - bend release (if no number after the r, then release immediately)
/ - slide into or out of (from/to "nowhere")
s - legato slide
S - shift slide
- natural harmonic
[n] - artificial harmonic
n(n) - tapped harmonic
~ - vibrato
tr - trill
T - tap
TP - trem. picking
PM - palm muting
n/ - tremolo bar dip; n = amount to dip
n - tremolo bar down
n/ - tremolo bar up
/n - tremolo bar inverted dip
= - hold bend; also acts as connecting device for hammers/pulls
<> - volume swell (louder/softer)
x - on rhythm slash represents muted slash
o - on rhythm slash represents single note slash

Misc Legend
-----------
| - bar
|| - double bar
||o - repeat start
o|| - repeat end
*| - double bar (ending)
: - bar (freetime)
$ - Segno
& - Coda
Tempo markers - = BPM(8/16=s8/s16), where s8 = swing 8ths, s16 = swing 16ths

-----------------------------
|  акорди, навчання, відео  |
|     http://akords.org     |
-----------------------------

 (голосів: 0)
   Інші пісні:
  • Black Chamber
  • Kiss Me Where It Smells Funny
  • Girl 2
  • Magna Cum Nada
  • Two Of Us
  •  
    Шановний відвідувач, Ви зайшли на сайт як незареєстрований користувач. Ми рекомендуємо Вам реєструватися або зайти на сайт під своїм ім'ям.

    Додавання коментаря

    Ім'я:*
    E-Mail:*
    Коментар:
    Введіть два слова, показані на зображенні: *
     
      

    BLIBL-створити сайт безкоштовно