Зробити стартовою  |  Додати в вибране
 
Пошук по сайту:  
  логін: пароль:  
    Реєстрація на сайті   Нагадати пароль?    

Видавництво Симфонія | Книжкова фабрика

akords.org » A » Aerosmith » Back In The Saddle
Знайти необхідні акорди

Aerosmith - Back In The Saddle  табулатура

BACK IN THE SADDLE
As recorded by Aerosmith
(From the 1977 Album ROCKS)


Transcribed by tonedeafidiot

Words and Music by Tyler/Perry



Esus4/A
x 0 2 2 0 0 Am
x 0 2 2 1 0 D
x x 0 2 3 2 A5
x 0 2 2 x x


Gtr I (Eb Ab Db Gb Bb Eb) - 'Distortion'
Gtr II (Eb Ab Db Gb Bb Eb) - 'Fuzz Guitar'
Gtr III (Eb Ab Db Gb Bb Eb) - 'Distortion 2'
Gtr IV (Eb Ab Db Gb Bb Eb) - 'Acoustic'


Intro
Moderate Rock Q=116
4/4
Gtr III
<<br /> H. Q +W
|------------------|-------------------|
|------------------|-------------------|
|------------------|-------------------|
|--------------7---|-(7)---------------|
|--------------0---|-(0)---------------|
|------------------|-------------------|
|
| Gtr I
| E Q. +Q. E E Q. +Q. E
|------------------|-------------------|
|------------------|-------------------|
|-3p2-----(2)----x-|--6p5-----(5)----x-|
|------------------|-------------------|
|------------------|-------------------|
|------------------|-------------------|
|
| Gtr II
| PM------------------------------------
| q q q q q q q q
|------------------|-------------------|
|------------------|-------------------|
|-2----2---2---2---|--2----2---2---2---|
|-2----2---2---2---|--2----2---2---2---|
|------------------|-------------------|
|------------------|-------------------|


T T
+H E Q. +W
|-----------------------------|-----------------------|
|-----------------------------|-----------------------|
|-----------------------------|-----------------------|
|-(7)-------------------------|-----------------------|
|-(0)---------[12]-[7]--------|-([7])-----------------|
|-----------------------------|-----------------------|
|
| E E +Q. +Q +E E Q. +Q. E
|-----------------------------|-----------------------|
|-----------------------------|-----------------------|
|--9p=8--(8)-------(8)---(8)-|---6p===5-----(5)----x-|
|--8-(8)-(8)-------(8)---(8)-|---5---(5)----(5)------|
|-----------------------------|-----------------------|
|-----------------------------|-----------------------|
|
|-------------------------------------------------|
| q q q q q q q q
|-----------------------------|-----------------------|
|-----------------------------|-----------------------|
|--2------2-----2------2------|---2-------2---2---2---|
|--2------2-----2------2------|---2-------2---2---2---|
|-----------------------------|-----------------------|
|-----------------------------|-----------------------|


W +W
|----------------------|--------------------------|
|----------------------|--------------------------|
|----------------------|--------------------------|
|-7--------------------|-(7)----------------------|
|-0--------------------|-(0)----------------------|
|----------------------|--------------------------|
|
| E Q. +Q. E E Q. +Q. E
|----------------------|--------------------------|
|----------------------|--------------------------|
|-3p2----------(2)---x-|--6p5----------(5)----x---|
|----------------------|--------------------------|
|----------------------|--------------------------|
|----------------------|--------------------------|
|
| E S S E S S H E S S E E Q E S S
|----------------------|--------------------------|
|---------------3------|---------3-(3)--3---------|
|-x-x--x-x-x-x---------|--x-x--x------------x-x-x-|
|-x-x--x-x-x-x---------|--x-x--x------------x-x-x-|
|----------------------|--------------------------|
|----------------------|--------------------------|


+H H +H. Q
|-----------------------------|--------------------------|
|-----------------------------|--------------------------|
|--------------[7]------------|-([7])--------------------|
|-(7)----------(7)------------|--------------------------|
|-(0)----------(0)------------|--------------------------|
|-----------------------------|--------------------------|
|
| E E +Q. +Q +E E Q. +Q. E
|-----------------------------|--------------------------|
|-----------------------------|--------------------------|
|--9p=8--(8)-------(8)---(8)-|---6p===5------(5)-----x--|
|--8-(8)-(8)-------(8)---(8)-|---5---(5)-----(5)--------|
|-----------------------------|--------------------------|
|-----------------------------|--------------------------|
|
| e e e e e e e e e e e e e e e e
|-----------------------------|--------------------------|
|-----------------------------|--------------------------|
|--x--x---x--x--x---x--x--x---|---x----x--x-x--x--x-x-x--|
|--x--x---x--x--x---x--x--x---|---x----x--x-x--x--x-x-x--|
|-----------------------------|--------------------------|
|-----------------------------|--------------------------|


<<br /> W +W
|----------------------------|-----------------------------|
|----------------------------|-----------------------------|
|----------------------------|-----------------------------|
|-7--------------------------|-(7)-------------------------|
|-0--------------------------|-(0)-------------------------|
|----------------------------|-----------------------------|
|
| E Q. +Q. E E Q. +Q. E
|----------------------------|-----------------------------|
|----------------------------|-----------------------------|
|-3p2----------(2)-------x---|--6p5----------(5)-------x---|
|----------------------------|-----------------------------|
|----------------------------|-----------------------------|
|----------------------------|-----------------------------|
|
| PM--------------------------------------------------------
| e S S e S S e S S e S S e S S e S S e S S e S S
|----------------------------|-----------------------------|
|----------------------------|-----------------------------|
|-2-2--2-2-2-2--2--2-2-2-2-2-|--2-2--2-2-2-2--2--2-2-2-2-2-|
|-2-2--2-2-2-2--2--2-2-2-2-2-|--2-2--2-2-2-2--2--2-2-2-2-2-|
|----------------------------|-----------------------------|
|----------------------------|-----------------------------|


+H +Q. E
|-------------------------------------|
|-------------------------------------|
|-------------------------------------|
|-(7)--------------(7)----------------|
|-(0)--------------(0)----------------|
|-------------------------------------|
|
| E E +Q. +Q +E
|-------------------------------------|
|-------------------------------------|
|--9p=8----(8)---------(8)-----(8)---|
|--8-(8)---(8)---------(8)-----(8)---|
|-------------------------------------|
|-------------------------------------|
|
|-----------------------------------|
| E s S e S S e S S e S S
|-------------------------------------|
|-------------------------------------|
|--2--2--2--2--2-2--2---2--2-2--2---2-|
|--2--2--2--2--2-2--2---2--2-2--2---2-|
|-------------------------------------|
|-------------------------------------|


G
<<br /> W H. Q
|------------------------------|-------------------------|
|-10---------------------------|-10----------------------|
|------------------------------|-------------------------|
|------------------------------|-------------------------|
|------------------------------|-------------------------|
|------------------------------|-------------------------|
|
| G
| E Q. E Q. E E E E E E Q
|------------------------------|-------------------------|
|------------------------------|-------------------------|
|--8p=7----------8p=7----------|--8p=7--8p=7--8p=7--8---|
|--7-(7)---------7-(7)---------|--7-(7)-7-(7)-7-(7)-7---|
|------------------------------|-------------------------|
|------------------------------|-------------------------|
|
| G
| PM--------------------------------------------------|
| e S S e S S e S S e S S e e e e e e e e
|------------------------------|-------------------------|
|------------------------------|-------------------------|
|------------------------------|-------------------------|
|--4--4--4-4-4-4-4--4--4-4-4-4-|--4--4--4--4--4--4--4--4-|
|--5--5--5-5-5-5-5--5--5-5-5-5-|--5--5--5--5--5--5--5--5-|
|------------------------------|-------------------------|


Chorus
tr II
a +Q a +Q a +Q a +Q
||-------------------------------------------------------------------|
||o-15b17==(15)r==(15)b17==(15)r==(15)b17==(15)r==(15)b17==(15)------|
||-------------------------------------------------------------------|
||-------------------------------------------------------------------|
||o------------------------------------------------------------------|
||-------------------------------------------------------------------|
|
|tr III
| E E E E E E E E
||-------------------------------------------------------------------|
||o------------------------------------------------------------------|
||-------------------------------------------------------------------|
||-------------------------------------------------------------------|
||o----------5--5------------5--5------------5--5------------5--5----|
||-----------0--0------------0--0------------0--0------------0--0----|
|
|tr I
| E E E E Q +E S S
||-------------------------------------------------------------------|
||o------------------------------------------------------------------|
||-------------------------------------------------------------------|
||-------------------------------------------------------------------|
||o------------------------------------------------------------------|
||-----------3--0---------------3------------0--------------(0)-2-3--|


~~~~~
a +Q a +Q a +Q. E
|-----------------------------------------------------------------|
|-(15)b17==(15)r====(15)b17==(15)r=====(15)b17==(15)r-------------|
|-----------------------------------------------------------------|
|-----------------------------------------------------------------|
|-----------------------------------------------------------------|
|-----------------------------------------------------------------|
|
| E E E E E E E E
|-----------------------------------------------------------------|
|-----------------------------------------------------------------|
|-----------------------------------------------------------------|
|-----------------------------------------------------------------|
|------------5--5--------------5-----5------------5-----5----5--5-|
|------------0--0--------------0-----0------------0-----0----0--0-|
|
| +E S S S E. S S S S +Q
|-----------------------------------------------------------------|
|-----------------------------------------------------------------|
|-----------------------------------------------------------------|
|-----------------------------------------------------------------|
|---------------------------------5---------------5---5-4---------|
|-----------(3)-0-2------------3--------------------------5-(5)---|


a +H +Q Q W
|----------------------------------|--------------------------------||
|-15b17-(15)-------(15)-----------|-------------------------------o||
|----------------------------------|--------------------------------||
|----------------------------------|--------------------------------||
|----------------------------------|-------------------------------o||
|----------------------------------|--------------------------------||
|
| E E E E E E E E E E E E E E E E
|----------------------------------|--------------------------------||
|----------------------------------|-------------------------------o||
|----------------------------------|--------------------------------||
|----------------------------------|--------------------------------||
|---------5--5-5-5---5---5--5--5---|--5--5---5----5-5---5----5--5--o||
|---------0--0-0-0---0---0--0--0---|--0--0---0----0-0---0----0--0---||
|
| E E E E Q +E S S +E S S S E. S S S S +Q
|----------------------------------|--------------------------------||
|----------------------------------|-------------------------------o||
|----------------------------------|--------------------------------||
|----------------------------------|--------------------------------||
|----------------------------------|-----------5----5-5-4----------o||
|---------3--0---3---0-----(0)-2-3-|-(3)-0-2-3------------5-(5)-----||


Verse
Esus4/A D
Gtr IV
E E Q E E E E +E E Q E E E E
| | | | | | | | | | | | | |
/ / / / / / / / / / / / / /

Gtr III
E E E E E E E E E E E E Q Q
|-----------------------|------------------|
|-----------------------|------------------|
|-----------------------|------------------|
|-7-7-7---7----7--7-7-7-|--7-7-7-7-7---7---|
|-0-0-0---0----0--0-0-0-|--0-0-0-0-5---3---|
|-----------------------|------------------|
|
| Gtr I
| PM----------------------------------------
| E E S S S S +E E E E E E E E e e Q
|-----------------------|------------------|
|-----------------------|------------------|
|-----------2-(2)-------|----2-------------|
|-------x-x-2-(2)-----4-|----2-----4-4-2---|
|-4-4-4-x-x-0-(0)-0-0-5-|----0-3---5-5-3---|
|-5-5-5-----------------|--------3---------|


Esus4/A D
E E Q E E E E +E E Q E E E E
| | | | | | | | | | | | | |
/ / / / / / / / / / / / / /

E E E E E E E E E E E E Q Q
||------------------------|--------------------||
||o-----------------------|-------------------o||
||------------------------|--------------------||
||--7-7-7---7----7--7-7-7-|--7-7-7-7-7---7-----||
||o-0-0-0---0----0--0-0-0-|--0-0-0-0-5---3----o||
||------------------------|--------------------||
|
|----------------------------------------|
| E E S S S S +E E E E E E E E e e Q
||------------------------|--------------------||
||o-----------------------|-------------------o||
||------------2-(2)-------|----2---------------||
||--------x-x-2-(2)-----4-|----2-----4-4-2-----||
||o-4-4-4-x-x-0-(0)-0-0-5-|----0-3---5-5-3----o||
||--5-5-5-----------------|--------3-----------||


Esus4/A D
E E Q E E E E +E E Q E E E E
| | | | | | | | | | | | | |
/ / / / / / / / / / / / / /

�.5 /
E E E E E Q. +Q Q +Q. +E
|-----------------------------|--------------------------------|
|-----------------12b12.5-----|-(12)---(12)--------------------|
|-----------------------------|---------12------(12)-----(12)-|
|-7-7-7---7-------------------|--------------------------------|
|-0-0-0---0-------------------|--------------------------------|
|-----------------------------|--------------------------------|
|
| PM------------------------------------------------------------
| E E S S S S +E E E E E E E E e e Q
|-----------------------------|--------------------------------|
|-----------------------------|--------------------------------|
|-----------2-(2)-------------|------2-------------------------|
|-------x-x-2-(2)-----------4-|------2------------4--4-2-------|
|-4-4-4-x-x-0-(0)--0------0-5-|------0---3--------5--5-3-------|
|-5-5-5-----------------------|---------------3----------------|


Esus4/A D
E E Q E E E E +E E Q E E E E
| | | | | | | | | | | | | |
/ / / / / / / / / / / / / /

H E E E E E E E E E E E E
|-----------------------|-------------------|
|-----------------------|-------------------|
|-----------------------|-------------------|
|--------------7--7-7-7-|--7-7-7-7-7-7-7-7--|
|--------------0--0-0-0-|--0-0-0-0-0-0-0-0--|
|-----------------------|-------------------|
|
|----------------------------------------|
| E E S S S S +E E E E E E E E E E E E
|-----------------------|-------------------|
|-----------------------|-------------------|
|-----------2-(2)-------|-------------------|
|-------x-x-2-(2)-----4-|------4---4-4---4--|
|---4-4-x-x-0-(0)-0-0-5-|----0-5-0-5-5-3-5--|
|-3-5-5-----------------|-------------------|


Esus4/A D
E E Q E E E E +E E Q E E E E
| | | | | | | | | | | | | |
/ / / / / / / / / / / / / /

~~~
E E E E E E +Q +E +E q Q. +E
|-----------------14b15==(14)r==|=(14)b15==(14)r14-----------------|
|-------------------------------|--------------------13------(13)-|
|-------------------------------|----------------------------------|
|-7-7-7---7---------------------|----------------------------------|
|-0-0-0---0---------------------|----------------------------------|
|-------------------------------|----------------------------------|
|
| PM--------------------------------------------| PM------------
| E E S S S S +E E E E E E E E E E Q
|-------------------------------|----------------------------------|
|-------------------------------|----------------------------------|
|-----------2-(2)---------------|----------------------------------|
|-------x-x-2-(2)-------------4-|----------------4----4----4-------|
|---4-4-x-x-0-(0)--0-------0--5-|------------0---5-0--5--0-5-------|
|-3-5-5-------------------------|----------------------------------|


Esus4/A D
E E Q E E E E +E E Q E E E E
| | | | | | | | | | | | | |
/ / / / / / / / / / / / / /

E E E E E E E E E E E E E E E E
|-----------------------|-------------------|
|-----------------------|-------------------|
|-----------------------|-------------------|
|-7-7-7---7----7--7-7-7-|--7-7-7-7-7-7-7-7--|
|-0-0-0---0----0--0-0-0-|--0-0-0-0-0-0-0-0--|
|-----------------------|-------------------|
|
|------------------------------| PM----|
| E E S S S S +E E E E E E E E E E E E
|-----------------------|-------------------|
|-----------------------|-------------------|
|-----------2-(2)-------|-------------------|
|-------x-x-2-(2)-----4-|------4---4-4---4--|
|---4-4-x-x-0-(0)-0-0-5-|----0-5-0-5-5-3-5--|
|-3-5-5-----------------|-------------------|


Esus4/A D
E E Q E E E E +E E Q E E E E
| | | | | | | | | | | | | |
/ / / / / / / / / / / / / /

Gt
2
~~~~~~~~~~~~~
E E E E H +E E H +E E
|-----------------------|------------------------||
|-----------------------|------------------------||
|-------------12--------|-(12)-------------------||
|-7-7-7---7-------------|--------10-------(10)---||
|-0-0-0---0-------------|------------------------||
|-----------------------|------------------------||
|
| Gt
| PM-----------------------------| PM--|
| E E S S S S +E E E E E E E E E E Q
|-----------------------|------------------------||
|-----------------------|------------------------||
|-----------2-(2)-------|------------------------||
|-------x-x-2-(2)-----4-|---------4---4-----4----||
|---4-4-x-x-0-(0)-0-0-5-|------0--5-0-5-0---5----||
|-3-5-5-----------------|------------------------||


Chorus
W W
r II
~~~~~~~
a +H +Q Q W
|----------------------------------------|------------------------------|
|-15b17==(15)------------(15)-----------|------------------------------|
|----------------------------------------|------------------------------|
|----------------------------------------|------------------------------|
|----------------------------------------|------------------------------|
|----------------------------------------|------------------------------|
|
|r III
| �.5/ �.5/ �.5/ �.5/ �.5/ �.5/ �.5/ �.5/
| Q Q Q Q Q Q Q Q
|----------------------------------------|------------------------------|
|----------------------------------------|------------------------------|
|----------------------------------------|------------------------------|
|----------------------------------------|------------------------------|
|----------7------7--------7------7------|-7------7------7------7-------|
|----------0------0--------0------0------|-0------0------0------0-------|


a +Q a +Q a +Q a +Q
|--------------------------------------------------------------------|
|-15b17==(15)r===(15)b17==(15)r===(15)b17==(15)r===(15)b17==(15)-----|
|--------------------------------------------------------------------|
|--------------------------------------------------------------------|
|--------------------------------------------------------------------|
|--------------------------------------------------------------------|
|
| �.5/ �.5/ �.5/ �.5/
| Q Q Q Q
|--------------------------------------------------------------------|
|--------------------------------------------------------------------|
|--------------------------------------------------------------------|
|--------------------------------------------------------------------|
|----------7----------------7----------------7----------------7------|
|----------0----------------0----------------0----------------0------|


~~~~~~~ ~~~~~~~
a +Q a +Q a +Q. E a +H Q Q
|------------------------------------------------------------|---------------------------------------|
|-(15)b17==(15)r===(15)b17==(15)r===(15)b17-(15)r------------|-15b17==(15)------------15------------|
|------------------------------------------------------------|---------------------------------------|
|------------------------------------------------------------|---------------------------------------|
|------------------------------------------------------------|---------------------------------------|
|------------------------------------------------------------|---------------------------------------|
|
| �.5/ �.5/ �.5/ �.5/ �.5/ �.5/ �.5/ �.5/
| Q Q Q Q Q Q Q Q
|------------------------------------------------------------|---------------------------------------|
|------------------------------------------------------------|---------------------------------------|
|------------------------------------------------------------|---------------------------------------|
|------------------------------------------------------------|---------------------------------------|
|------------7----------------7---------------7------7-------|----------7------7-------7------7------|
|------------0----------------0---------------0------0-------|----------0------0-------0------0------|


W a +Q a +Q a +Q a +Q
|-------------------------------------|------------------------------------------------------------------------|
|-------------------------------------|-15b17==(15)r===(15)b17==(15)r===(15)b17==(15)r===(15)b17==(15)r========|
|-------------------------------------|------------------------------------------------------------------------|
|-------------------------------------|------------------------------------------------------------------------|
|-------------------------------------|------------------------------------------------------------------------|
|-------------------------------------|------------------------------------------------------------------------|
|
| �.5/ �.5/ �.5/
| ~~~~
| E S S S S S S E a +Q +E Q Q Q E a +E
|-------------------------------------|------------------------------------------------------------------------|
|-------------------------------------|----------------------------------------------------------------15-(15)-|
|--------9---------9-14b16-(14)--(14)-|------------------------------------------------------------------------|
|---9s11---11s9s11--------------------|------------------------------------------------------------------------|
|-------------------------------------|----------7----------------7----------------7---------------------------|
|-------------------------------------|----------0----------------0----------------0---------------------------|


~~~~~
a +Q a +Q a +Q. E
|--------------------------------------------------||
|-(15)b17==(15)r=(15)b17==(15)r=(15)b17-(15)r------||
|--------------------------------------------------||
|--------------------------------------------------||
|--------------------------------------------------||
|--------------------------------------------------||
|
|~~~~~~~~~~~~~~~~
| +H. Q
|--------------------------------------------------||
|----------(15)------------------------------------||
|--------------------------------------------------||
|--------------------------------------------------||
|--------------------------------------------------||
|--------------------------------------------------||


Verse
Esus4/A D Esus4/A D
Gtr IV
E E Q E E E E +E E Q E E E E E E Q E E E E
| | | | | | | | | | | | | | | | | | | | |
/ / / / / / / / / / / / / / / / / / / / /

Gtr III
E E E E E E E E E E E E Q Q E E E E E E E E
|-----------------------|------------------|------------------------------|
|-----------------------|------------------|------------------------------|
|-----------------------|------------------|------------------------------|
|-7-7-7---7----7--7-7-7-|--7-7-7-7-7---7---|-7-7-----7----7----7--7--7--7-|
|-0-0-0---0----0--0-0-0-|--0-0-0-0-5---3---|-0-0-----0----0----0--0--0--0-|
|-----------------------|------------------|------------------------------|
|
| Gtr I
| PM-----------------------------------------------------------------------
| E E S S S S +E E E E E E E E e e Q E E S S S S +E E E E
|-----------------------|------------------|------------------------------|
|-----------------------|------------------|------------------------------|
|-----------2-(2)-------|----2-------------|----------------2-(2)---------|
|-------x-x-2-(2)-----4-|----2-----4-4-2---|-----------x--x-2-(2)-------4-|
|-4-4-4-x-x-0-(0)-0-0-5-|----0-3---5-5-3---|-4-4-----4-x--x-0-(0)-0--0--5-|
|-5-5-5-----------------|--------3---------|-5-5-----5--------------------|
|
| Gtr II
| ~~~
| W W E S S E E Q E E
|-----------------------|------------------|------------------------------|
|-----------------------|------------------|------------------------------|
|-----------------------|------------------|---9h12-12---12---12----12-14-|
|-----------------------|------------------|------------------------------|
|-----------------------|------------------|------------------------------|
|-----------------------|------------------|------------------------------|


+E E Q E E E E
| | | | | | |
/ / / / / / /

E E E E Q Q
|-------------------------------------------------|
|-------------------------------------------------|
|-------------------------------------------------|
|---7---7--7--7---------7----------------7--------|
|---0---0--0--0---------5----------------3--------|
|-------------------------------------------------|
|
|--------------------------------------|
| E E E E e e Q
|-------------------------------------------------|
|-------------------------------------------------|
|-------2-----------------------------------------|
|-------2---------------4-----------4----2--------|
|-------0--3------------5-----------5----3--------|
|-------------3-----------------------------------|
|
|~~~~~~
| +E E E E a +E a +E +S S E
|-------------------------------------------------|
|-------------------------------------------------|
|-(14)-12-----------------------------------------|
|---------14-13-12b13-(12)-12b13==(12)r(12)p10----|
|----------------------------------------------12-|
|-------------------------------------------------|


Esus4/A D
E E Q E E E E +E E Q E E E E
| | | | | | | | | | | | | |
/ / / / / / / / / / / / / /

E E E E E E E E E E E E Q Q
|------------------------|--------------------|
|------------------------|--------------------|
|------------------------|--------------------|
|--7-7-7---7----7--7-7-7-|---7--7-7-7-7---7---|
|--0-0-0---0----0--0-0-0-|---0--0-0-0-5---3---|
|------------------------|--------------------|
|
| PM------------------------------------------
| E E S S S S +E E E E E E E E e e Q
|------------------------|--------------------|
|------------------------|--------------------|
|------------2-(2)-------|------2-------------|
|--------x-x-2-(2)-----4-|------2-----4-4-2---|
|--4-4-4-x-x-0-(0)-0-0-5-|------0-3---5-5-3---|
|--5-5-5-----------------|----------3---------|
|
| ~~~~~~~~~~~~~~~~~~~~~~~~~~~~~
| W +H. Q
|------------------------|--------------------|
|------------------------|--------------------|
|------------------------|--------------------|
|------------------------|--------------------|
|-12---------------------|-(12)---------------|
|------------------------|--------------------|


Esus4/A D
E E Q E E E E +E E Q E E E E
| | | | | | | | | | | | | |
/ / / / / / / / / / / / / /

E E E E E E E E E E E E Q Q
|-------------------------|------------------------------------------||
|-------------------------|------------------------------------------||
|-------------------------|------------------------------------------||
|-7-7--7---7----7--7-7--7-|--7-----7-----7--7-----7--------7---------||
|-0-0--0---0----0--0-0--0-|--0-----0-----0--0-----5--------3---------||
|-------------------------|------------------------------------------||
|
|---------------------------------------------------------|
| E E S S S S +E E E E E E E E e e Q
|-------------------------|------------------------------------------||
|-------------------------|------------------------------------------||
|------------2-(2)--------|--------2---------------------------------||
|--------x-x-2-(2)------4-|--------2--------------4-----4--2---------||
|-4-4--4-x-x-0-(0)-0-0--5-|--------0-----3--------5-----5--3---------||
|-5-5--5------------------|-----------------3------------------------||
|
| Q q Q E E S S S S E S S S S E S S E
|-------------------------|------------------------------------------||
|-----13-------13--------|----------------13-13-13-13---------------||
|-----12-------12-----12-|-12h14-14-14-14-------------14-14p12-14---||
|-------------------------|------------------------------------------||
|-------------------------|------------------------------------------||
|-------------------------|------------------------------------------||


Gtr II
~~~~~~~~~~~~~~~~~~~~~~~~~~~~~ PM----
a W +H. E S S
|---------------------------|------------------------|
|---------------------------|------------------15-15-|
|-14s16---------------------|-(16)-------------------|
|---------------------------|------------------------|
|---------------------------|------------------------|
|---------------------------|------------------------|
|
| PM| PM-| PM PM
| E E S S S S +E E E E E E E E E E E E
|---------------------------|------------------------|
|---------------------------|------------------------|
|---------------4-(4)-------|------------------------|
|---------------4-(4)-----6-|--------6---6-6----6----|
|---------5-6-7-----------7-|--------7---7-7----7----|
|-----5-7-------------7-7---|---7--7---7-----7-------|
|
| Gtr III
| E E E E E E E E E E E E E E E E
|---------------------------|------------------------|
|---------------------------|------------------------|
|---------------------------|-------------------9----|
|-----9-9-9---9----9--9-9-9-|---9--9-9-9-9-9-9--9----|
|-----x-x-x---x----x--x-x-x-|---x--x-x-x-x-x-x-------|
|-----7-7-7---7----7--7-7-7-|---7--7-7-7-7-7-7-------|


--------------------------------------|
E S S E S S E S S E S S
|-----------------------------------------|
|-15--15-15-15---15-15-15--15-15-15-15-15-|
|-----------------------------------------|
|-----------------------------------------|
|-----------------------------------------|
|-----------------------------------------|
|
| PM---|
| E E S S S S +E E E E
|-----------------------------------------|
|-----------------------------------------|
|--------------------4-(4)----------------|
|--------------------4-(4)-----------6----|
|------------5-6--7------------------7----|
|--5---7--------------------7-----7-------|
|
| +Q E E E E E E
|-----------------------------------------|
|-----------------------------------------|
|-(9)-------------------------------------|
|-(9)--------9----9-----9---9-----9--9----|
|------------x----x-----x---x-----x--x----|
|------------7----7-----7---7-----7--7----|


PM----------------------------------
E S S E S S E S S E S S
||--------------------------------------|
||o-15-15-15-15-15-15-15-15-15-15-15-15-|
||--------------------------------------|
||--------------------------------------|
||o-------------------------------------|
||--------------------------------------|
|
| PM| PM PM
| E E E E E E E E
||--------------------------------------|
||o-------------------------------------|
||--------------------------------------|
||------------6--------6--6--------6----|
||o-----------7--------7--7--------7----|
||---7--7--------7--------------7-------|
|
| E E E E E E E E
||--------------------------------------|
||o-------------------------------------|
||--------------------------------------|
||---9--9-----9--9-----9--9-----9--9----|
||o--x--x-----x--x-----x--x-----x--x----|
||---7--7-----7--7-----7--7-----7--7----|


-----------------------------------------------------------------------|
E S S E S S E S S E S S E S S E S S E S S Q
|-----------------------------------------||----------------------------------||
|-15-15-15-15---15-15-15--15-15-15-15-15-o||-15-15-15-15-15-15-15-15-15-15----||
|-----------------------------------------||----------------------------------||
|-----------------------------------------||----------------------------------||
|----------------------------------------o||----------------------------------||
|-----------------------------------------||----------------------------------||
|
| PM---| PM| PM
| E E S S S S +E E E E E E E E q q
|-----------------------------------------||----------------------------------||
|----------------------------------------o||----------------------------------||
|-------------------4-(4)-----------------||----------------------------------||
|-------------------4-(4)-----------6-----||-----------6--------6--------6----||
|-----------5-6--7------------------7----o||-----------7--------7--------7----||
|--5--7--------------------7-----7--------||--7--7--------7-------------------||
|
| E E E E E E E E E E E E E E E E
|-----------------------------------------||----------------------------------||
|----------------------------------------o||----------------------------------||
|-----------------------------------------||----------------------------------||
|--9--9-----9----9-----9---9-----9--9-----||--9--9-----9--9-----9--9-----9-9--||
|--x--x-----x----x-----x---x-----x--x----o||--x--x-----x--x-----x--x-----x-x--||
|--7--7-----7----7-----7---7-----7--7-----||--7--7-----7--7-----7--7-----7-7--||


Chorus
~~~~~
a +Q a +Q a +Q a +Q a +Q a +Q a +Q. E
|-----------------------------------------------------------------|---------------------------------------------------------------|
|-15b17==(15)r===(15)b17==(15)r==(15)b17==(15)r=(15)b17==(15)-----|-(15)b17==(15)r====(15)b17==(15)r===(15)b17==(15)r-------------|
|-----------------------------------------------------------------|---------------------------------------------------------------|
|-----------------------------------------------------------------|---------------------------------------------------------------|
|-----------------------------------------------------------------|---------------------------------------------------------------|
|-----------------------------------------------------------------|---------------------------------------------------------------|
|
| Gtr III
| 4.5
| a +W +Q H.
|-----------------------------------------------------------------|---------------------------------------------------------------|
|-13b15--(13)-----------------------------------------------------|----------(13)-------------------------------------------------|
|-----------------------------------------------------------------|---------------------------------------------------------------|
|-----------------------------------------------------------------|---------------------------------------------------------------|
|-----------------------------------------------------------------|---------------------------------------------------------------|
|-----------------------------------------------------------------|---------------------------------------------------------------|
|
| Gtr I
| E E E E Q +E S S +E S S S E. S S S S +Q
|-----------------------------------------------------------------|---------------------------------------------------------------|
|-----------------------------------------------------------------|---------------------------------------------------------------|
|-----------------------------------------------------------------|---------------------------------------------------------------|
|-----------------------------------------------------------------|---------------------------------------------------------------|
|-----------------------------------------------------------------|---------------------------------5-------------5---5-4---------|
|----------3---0---------------3------------0-------------(0)-2-3-|-----------(3)-0-2------------3------------------------5-(5)---|


a +H +Q Q W
|---------------------------------------------|----------------------------------------|
|-15b17-(15)--------------(15)---------------|----------------------------------------|
|---------------------------------------------|----------------------------------------|
|---------------------------------------------|----------------------------------------|
|---------------------------------------------|----------------------------------------|
|---------------------------------------------|----------------------------------------|
|
| �.5/ �.5/ �.5/ �.5/
| ~~~
| Q Q Q Q E a +Q. +S +S S S E E
|---------------------------------------------|----------------------------------------|
|---------------------------------------------|----------------------------------------|
|---------------------------------------------|-----4b6==(4)--------(4)r(4)p2h4p=2-----|
|---------------------------------------------|----------------------------------------|
|---------7-------7---------7-------7---------|----------------------------------------|
|---------0-------0---------0-------0---------|----------------------------------------|
|
| E E E E Q +E S S +E S S S E. S S S S +Q
|---------------------------------------------|----------------------------------------|
|---------------------------------------------|----------------------------------------|
|---------------------------------------------|----------------------------------------|
|---------------------------------------------|----------------------------------------|
|---------------------------------------------|------------------5---5---5--4----------|
|---------3-----0-------3---0------(0)----2-3-|-(3)-------0--2-3--------------5-(5)----|


~~~~~~~
a +Q a +Q a +Q a +Q a +Q a +Q a +Q. E
|-------------------------------------------------------------------------|------------------------------------------------------------------------|
|-15b17==(15)r====(15)b17==(15)r====(15)b17==(15)r===(15)b17==(15)--------|-(15)b17==(15)r======(15)b17==(15)r=====(15)b17==(15)r------------------|
|-------------------------------------------------------------------------|------------------------------------------------------------------------|
|-------------------------------------------------------------------------|------------------------------------------------------------------------|
|-------------------------------------------------------------------------|------------------------------------------------------------------------|
|-------------------------------------------------------------------------|------------------------------------------------------------------------|
|
| �.5/ �.5/ �.5/ �.5/ �.5/ �.5/ �.5/ �.5/
| Q Q Q Q Q Q Q Q
|-------------------------------------------------------------------------|------------------------------------------------------------------------|
|-------------------------------------------------------------------------|------------------------------------------------------------------------|
|-------------------------------------------------------------------------|------------------------------------------------------------------------|
|-------------------------------------------------------------------------|------------------------------------------------------------------------|
|----------7-----------------7-----------------7----------------7---------|------------7-------------------7------------------7------------7-------|
|----------0-----------------0-----------------0----------------0---------|------------0-------------------0------------------0------------0-------|
|
| E E E E Q +E S S +E S S S E. S S S S +Q
|-------------------------------------------------------------------------|------------------------------------------------------------------------|
|-------------------------------------------------------------------------|------------------------------------------------------------------------|
|-------------------------------------------------------------------------|------------------------------------------------------------------------|
|-------------------------------------------------------------------------|------------------------------------------------------------------------|
|-------------------------------------------------------------------------|-------------------------------------5-------------5-----5-4------------|
|----------3----0-----------------3------------0---------------(0)----2-3-|-----------(3)---0-2------------3----------------------------5-(5)------|


a +H +Q Q W
|---------------------------------------------|-------------------------------------------||
|-15b17-(15)--------------(15)---------------|-------------------------------------------||
|---------------------------------------------|-------------------------------------------||
|---------------------------------------------|-------------------------------------------||
|---------------------------------------------|-------------------------------------------||
|---------------------------------------------|-------------------------------------------||
|
| �.5/ �.5/ �.5/ �.5/ �.5/ �.5/ �.5/ �.5/
| Q Q Q Q Q Q Q Q
|---------------------------------------------|-------------------------------------------||
|---------------------------------------------|-------------------------------------------||
|---------------------------------------------|-------------------------------------------||
|---------------------------------------------|-------------------------------------------||
|---------7-------7---------7-------7---------|--7---------7--------7------------7--------||
|---------0-------0---------0-------0---------|--0---------0--------0------------0--------||
|
| E E E E Q +E S S +E S S S E. S S S S +Q
|---------------------------------------------|-------------------------------------------||
|---------------------------------------------|-------------------------------------------||
|---------------------------------------------|-------------------------------------------||
|---------------------------------------------|-------------------------------------------||
|---------------------------------------------|------------------5--5-----5-4-------------||
|---------3-----0-------3---0------(0)----2-3-|-(3)----0-2-3------------------5-(5)-------||


Bridge
Gtr III
a Q a H a E E a Q E a E +E E a +q
|------------------------------------|---------------------------------------------|
|------5--------5---------------5----|-------7--------------8---(8)-8--------------|
|-7b9-(7)--7b9-(7)---------7b9-(7)---|-9b11-(9)-----10b12-(10)-(10)---10b12-(10)---|
|------------------------------------|---------------------------------------------|
|------------------------------------|---------------------------------------------|
|------------------------------------|---------------------------------------------|
|
| Gtrs I, II
| Q Q +E Q. E E E E +E E E E
|------------------------------------|---------------------------------------------|
|------------------------------------|---------------------------------------------|
|------7--------6---(6)-6------------|-------9--8-----------4---(4)-4---------4----|
|------7--------7---(7)-7------------|-------9--9-x---------5---(5)-5---------5----|
|------------------------------------|---------------------------------------------|
|------------------------------------|---------------------------------------------|


1________________/
a H. +Q +H. +E E
|--------------------------------|---------------------|
|--------10---------------(10)---|-(10)---------(10)---|
|-12b14-(12)--------------(12)---|-(12)---------(12)---|
|--------------------------------|---------------------|
|--------------------------------|---------------------|
|--------------------------------|---------------------|
|
| S S E E E E E E E E Q. Q Q
|--------------------------------|---------------------|
|--------------------------------|---------------------|
|--------------------------------|------2----2---------|
|--------------------------------|------2----2---------|
|---------------5-4-2-------3--2-|---0-----------------|
|---------5h==7-------5-2--------|---------------------|


a Q a H +E E a Q E a E +Q Q
|--------------------------------|------------------------------------|
|------5--------5----------(5)---|-------7--------------8---(8)-------|
|-7b9-(7)--7b9-(7)---------(7)---|-9b11-(9)-----10b12-(10)-(10)-------|
|--------------------------------|------------------------------------|
|--------------------------------|------------------------------------|
|--------------------------------|------------------------------------|
|
| Q Q +E Q. E E E E +E E E E
|--------------------------------|------------------------------------|
|--------------------------------|------------------------------------|
|------7--------6---(6)-6--------|-------9--8-----------4---(4)-4-4---|
|------7--------7---(7)-7--------|-------9--9-x---------5---(5)-5-5---|
|--------------------------------|------------------------------------|
|--------------------------------|------------------------------------|


a H a e Q a S a S
|--------------------------------------------------------|
|--------10----------------10-------------17---------17--|
|-12b14-(12)--------12b14-(12)-----19b21-(19)-19b21-(19)-|
|--------------------------------------------------------|
|--------------------------------------------------------|
|--------------------------------------------------------|
|
| S S E E E E E E E
|--------------------------------------------------------|
|--------------------------------------------------------|
|--------------------------------------------------------|
|--------------------------------------------------------|
|-------------5-4-2--------------3---------2-------------|
|---------5h7---------------5--2-------------------------|


TP TP
a H a E S S Q
|----------------------------17-17-17--|
|--------17--------------17-------------|
|-19b21-(19)------19b21-(19)------------|
|---------------------------------------|
|---------------------------------------|
|---------------------------------------|
|
| E Q. Q Q
|---------------------------------------|
|---------------------------------------|
|------------2------------2-------------|
|------------2------------2-------------|
|---------0-----------------------------|
|---------------------------------------|


~~~~~~~~~~~~~~~~~~
a H. +E E a Q E a E +Q E E
|----------------------------|-------------------------------------|
|--------5-------------(5)---|-------7--------------8---(8)---8s10-|
|-[7]b9-(7)------------(7)---|-9b11-(9)-----10b12-(10)-(10)--------|
|----------------------------|-------------------------------------|
|----------------------------|-------------------------------------|
|----------------------------|-------------------------------------|
|
| Q Q +E Q. E E E E +E E E E
|----------------------------|-------------------------------------|
|----------------------------|-------------------------------------|
|--------7---6--(6)-6--------|-------9--8-----------4---(4)-4-4----|
|--------7---7--(7)-7--------|-------9--9-x---------5---(5)-5-5----|
|----------------------------|-------------------------------------|
|----------------------------|-------------------------------------|


~~~~
a H. Q E E E E +E E S S E
|---------------------------|--------11s12-(12)------------|
|--------10-----------------|-13s14--13s14-(14)-13-13s14---|
|-12b14-(12)----------------|------------------------------|
|---------------------------|------------------------------|
|---------------------------|------------------------------|
|---------------------------|------------------------------|
|
| S S E E E E E E E E Q. Q Q
|---------------------------|------------------------------|
|---------------------------|------------------------------|
|---------------------------|-----2----------2-------------|
|---------------------------|-----2----------2-------------|
|-------------5-4-2-----3-2-|--0---------------------------|
|---------5h7-------5-2-----|------------------------------|


~~~~~~~~~~~~~~~
a Q a H +E E
|--------------------------------|
|------5--------5----------(5)---|
|-7b9-(7)--7b9-(7)---------(7)---|
|--------------------------------|
|--------------------------------|
|--------------------------------|
|
| Q Q +E Q.
|--------------------------------|
|--------------------------------|
|------7--------6---(6)-6--------|
|------7--------7---(7)-7--------|
|--------------------------------|
|--------------------------------|


a Q E a E Q S S E
|--------------------------------------|
|-------7--------------8----8----8s7---|
|-9b11-(9)-----10b12-(10)-(10)---------|
|--------------------------------------|
|--------------------------------------|
|--------------------------------------|
|
| E E E E +E E E E
|--------------------------------------|
|--------------------------------------|
|-------9--8-----------4---(4)-4-4-----|
|-------9--9-x---------5---(5)-5-5-----|
|--------------------------------------|
|--------------------------------------|


~~~~~ ~~~~
a H. E E E +Q E +E +Q E
|------------------------------|-------------15-(15)-(15)-----||
|---------10-------------------|-12b13-(12)-------------------||
|-12b14==(12)r============12---|------------------------------||
|------------------------------|------------------------------||
|------------------------------|------------------------------||
|------------------------------|------------------------------||
|
| S S E E E E E E E E Q. Q Q
|------------------------------|------------------------------||
|------------------------------|------------------------------||
|------------------------------|---------2--------2-----------||
|------------------------------|---------2--------2-----------||
|---------------5-4-2------3-2-|--0---------------------------||
|----------5h=7-------5-2------|------------------------------||


Chorus
Gtr II
a +Q a +Q a +Q a +Q
|----------------------------------------------------------------|
|-15b17==(15)r==(15)b17==(15)r==(15)b17==(15)r=(15)b17==(15)-----|
|----------------------------------------------------------------|
|----------------------------------------------------------------|
|----------------------------------------------------------------|
|----------------------------------------------------------------|
|
| Gtr III
| Q Q Q Q
|----------------------------------------------------------------|
|----------------------------------------------------------------|
|----------------------------------------------------------------|
|----------------------------------------------------------------|
|----------7---------------7---------------7--------------7------|
|----------0---------------0---------------0--------------0------|
|
| Gtr I
| E E E E Q +E S S
|----------------------------------------------------------------|
|----------------------------------------------------------------|
|----------------------------------------------------------------|
|----------------------------------------------------------------|
|----------------------------------------------------------------|
|----------3--0---------------3------------0-------------(0)-2-3-|


~~~~~
a +Q a +Q a +Q. E a +H +Q Q W
|-------------------------------------------------------------------------------|---------------------------------|-----------------------------|
|-(15)b17==(15)r====(15)b17==(15)r===(15)b17==(15)r-----------------------------|-15b17-(15)-------(15)----------|-----------------------------|
|-------------------------------------------------------------------------------|---------------------------------|-----------------------------|
|-------------------------------------------------------------------------------|---------------------------------|-----------------------------|
|-------------------------------------------------------------------------------|---------------------------------|-----------------------------|
|-------------------------------------------------------------------------------|---------------------------------|-----------------------------|
|
| Q Q E a +E a +Q Q Q Q Q E S S +H.
|-------------------------------------------------------------------------------|---------------------------------|-----------------------------|
|-----------------------------------------------------15b17-(15)---15b17-(15)---|---------------------------------|-----3-2-(2)-----------------|
|-------------------------------------------------------------------------------|---------------------------------|-----2-2-(2)-----------------|
|-------------------------------------------------------------------------------|---------------------------------|-----2-2-(2)-----------------|
|------------7-----------------7----------------------------------

-----------------------------
|  акорди, навчання, відео  |
|     http://akords.org     |
-----------------------------

 (голосів: 0)
   Інші пісні:
  • Go
  • And Your Bird Can Sing
  • Let The Music Do The Talking
  • Deep In The Hole
  • Battalions Of Fear
  •  
    Шановний відвідувач, Ви зайшли на сайт як незареєстрований користувач. Ми рекомендуємо Вам реєструватися або зайти на сайт під своїм ім'ям.

    Додавання коментаря

    Ім'я:*
    E-Mail:*
    Коментар:
    Введіть два слова, показані на зображенні: *
     
      

    BLIBL-створити сайт безкоштовно