Зробити стартовою  |  Додати в вибране
 
Пошук по сайту:  
  логін: пароль:  
    Реєстрація на сайті   Нагадати пароль?    

Видавництво Симфонія | Книжкова фабрика

akords.org » A » Aerosmith » Aerosmith
Знайти необхідні акорди

Aerosmith - Aerosmith  табулатура

Artist: Aerosmith
Album: Aerosmith

Listing:
1. Make It
2. Somebody
3. Dream On
4. One Way Street
5. Mama Kin
6. Write Me A Letter
7. Movin' Out
8. Walkin' The Dog


LEGEND:
/: SLIDE UP
: SLIDE DOWN
h: HAMMER ON
p: PULL-OFF
x: MUTE STRING
b: BEND
~: HOLD NOTE
r: RELEASE BEND
HAVE FUN!
----------------------------------------------------------------------------
1. MAKE IT

intro(guitar 1)-
E-----------------------------------------------|
B-----------7--7-----7---10--10--10------10-----|
G--------7--7--7--7--7---10--10--10--10--10-----|
D-----5--7--7--7--7--7---10--10--10--10--10--8-|
A--0--3--5-----5--5--5--------8---8---8---8--8-|
E--------------------------------------------6-|

After that riff, guitar two strums a Bb5

Continue with that pattern until you hear a change.
Then play something like this:

E-------------------------------------------|
B-------------------------------------------|
G-------------------------------------------|
D-------------------------------------------|
A--5-5-7--5-5-7--5-5-7--5-5-7--7-7-9--7-7-9-|
E--3-3-3--3-3-3--3-3-3--3-3-3--5-5-5--5-5-5-|

E----------|
B----------|
G----------|
D----------|
A-7-7-9--7-|
E-5-5-5--5-|

verse-

E------------------------------------------|
B------------------------------------------|
G--10--9--7--10--9--7--10--9--10--10--9--7-|
D--10--9--7--10--9--7--10--9--10--10--9--7-|
A---8--7--5---8--7--5---8--7---8---8--7--5-|
E------------------------------------------|

chorus(palm mute)-

Em-G5-G#5-A5 C5-D5-E5(slide back to Em)


the "bedwetter" part-

bed wetter pull...
E-------------------------------------------------|
B--6b--8-8--10-8------------------6b-5-6p5-6-8/10-|
G-----------------10-8----------------------------|
D-----------------------10-8----------------------|
A-----------------------------10------------------|
E-------------------------------------------------|

At the very end of that, guitar 2 plays this
E-----------------------|
B---8--10---------------|
G-----------------------|
D-----------8(1)-------|
A-----------------------|
E-----------------------|

guitar 1-
E-------------------------------------------------|
B--6b--8-8--10-8------------------5/6-6-5-5-3-----|
G-----------------10-8----------------------------|
D-----------------------10-8----------------------|
A-----------------------------10------------------|
E-------------------------------------------------|

----------------------------------------------------------------------------
2. SOMEBODY

rhy.fig.1-

E---------------------------------------------------|
B---------------------------------------------------|
G---------------------------------------------------|
D---------------------------------------------------|
A----2--2--4----2--4--2--2---4----------------------|
E----0--0--0----0--0--0--0---0--2---2--3-3--4-4-----|
This riff changes slightly, sometimes changing to (2 3 4) instead of (2 3
3 4 4). When the verse comes in, play this:
rhy.fig.2-
I need a lady not somebody shady...
E---------------------------------------------------|
B------2--------------------------------------------|
G------2-------(3x)---------------------------------|
D------2--------------------------------------------|
A---------------------------------------------------|
E----------------------0---3---0---3----------------|
(rhy.fig.1))
The words fit into the music like this:

I need a lady not somebody shady
need someone to be close to
somebody cozy not somebody nosy
help me see my whole day through
F#5
someone to share the load
A5
somebody to walk the road I live on...live!(rhy.fig.1)

Basic chords for this part go like this:
fill 1-
F#5 A5 live on...live
E---------------------------------------------------|
B---------------------------------------------------|
G-------------------9--9-----9---------------------|
D---4-----7---------9--9-----9---------------------|
A---4-----7---------7--7-----7---------------------|
E---2-----5-----------------------------------------|
(rhy.fig.2)

Good Lord send me, good lord mend me
send me down someone for me
said I won't be choosy you could send me a floozy
send me anybody you please
F#5
Somebody say you will
A5
Somebody further still
G5 B5
Somebody some-somebody for me(fill 1)
fill 2- D5 A E
E---------------------------------------------------|
B-------------------2-------------------------------|
G----9----7--7------2-------------------------------|
D----9----7--7------2----------------2--------------|
A----7----5--5-----------------------2--------------|
E-------------------------3---2---0--0--------------|
Now won't you send me somebody
(repeat twice)

I used two barre chords in this transcription without tabbing them. Here
they are for those who don't know:
B5 G5
E-------------|
B-------------|
G---4---------|
D---4----5----|
A---2----5----|
E--------3----|

Sorry, I dont know the guitar solo yet
----------------------------------------------------------------------------
3. DREAM ON

Intro and verse:
e+-4-----4-----3-----3-----4-----4-----3-----3----|
B+-6-----6-----4-----4-----3-----3-----2--1--2--1-|
G+----5-----5-----5-----5-----5-----5-------------|
D+------------------------------------------------|
A+------------------------------------------------|
E+------------------------------------------------|

|-4-----4-----6-----6------8-----8------8---------|
|-6-----6-----8-----8------9-----9------9---------|
|----5-----5-----5-----5----------------10--------|
|----------------------------10----10---10--------|
|-------------------------------------------------|
|-------------------------------------------------|

|-4-----4-----3-----3------4-----4-----3-----3----|
|-6-----6-----4-----4------3-----3-----2--1--2--1-|
|----5-----5-----5-----5------5-----5-------------|
|-------------------------------------------------|
|-------------------------------------------------|
|-------------------------------------------------|

|-4-----4-----6-----6------8-----8------6---4---6-|
|-6-----6-----6-----6------6-----6------6---6---6-|
|----5-----5-----5-----5--------------------------|
|-------------------------------------------------|
|-------------------------------------------------|
|-------------------------------------------------|

|--8-----8-----8-6---6---------------------------|
|--9-----9-----8-6---6---------------------------|
|--------------------------6--5--6--5--6--5--6--5-|
|-------------------------------------------------|
|-------------------------------------------------|
|-------------------------------------------------|


Lead Guitar(Joe):
|-----------------------------------------------------------------|
|-----------5/6/8--6/8/9-8/9/11-9h11p9--8h9p8-6h8p6-4h6p4--2-1/13-|
|-6/5/3-5-6-------------------------------------------------------|
|-----------------------------------------------------------------|
|-----------------------------------------------------------------|
|-----------------------------------------------------------------|

Guitar 2(Brad):

|-3-------3-------3-------3---------3-----------3---------|
|-2---1---2---1---2---1---2----1----2-----1-----2-----1---|
|---------------------------------------------------------|
|---------------------------------------------------------|
|---------------------------------------------------------|
|---------------------------------------------------------|


In the verse is played the first line of the Intro:
And then:

|-4-----4-----3-----3-----4-----4-----3-----3----|
|-6-----6-----5-----5-----6-----6-----6-----6----|
|----5-----5-----5-----5-----5-----5-----5-----5-|
|------------------------------------------------|
|------------------------------------------------|
|------------------------------------------------|

|------------------------|
|------------------------|
|-5--6--5--6--5--6--5--6-|
|------------------------|
|------------------------|
|------------------------|

Chorus:

F5 D#5
I know what nobody knows
C#5 D#5
Where it comes and where it goes
F5 D#5
I know it's everybody's sin
C#5 D#5
You got to lose to know how to win

Chord tabs

F5 D#5 C#5
|-------------------------------------|
|-------------------------------------|
|----10----------8----------6---------|
|----10----------8----------6---------|
|----8-----------6----------4---------|
|-------------------------------------|

VERSE 2

During verse 2 a second guitar plays:
|----------------------------------|
|----------------------------------|
|-------------1--------------------|
|---------------3-~~~~~------------|
|-------1-2-3----------------------|
|-1-3-4----------------------------|


Chorus:

F5 D#5
Sing with me, sing for the years
C#5 D#5
Sing for the laughter, sing for the tears
F5 D#5
Sing with me, if it's just for tofay
C#5 D#5
Mabye tomorrow the good Lord will take you away

SOLO:
|------------------------|
|------------------------|
|-5--6--5--6--5--6--5--6-|
|------------------------|
|------------------------|
|------------------------|


|---4-----4-----6------6----------8-----8-----8/---13--------------|
|-----6-----6------6-----6----------6-----6------------------------|
|-5-----5-----5------5-----5---5------5-----5----------------------|
|------------------------------------------------------------------|
|------------------------------------------------------------------|
|------------------------------------------------------------------|


|-8-----8------------8-------8----------------------|
|-----6-----6------6-----6------6---6---8--8b9r8----|
|---------------------------------------------------|
|---------------------------------------------------|
|---------------------------------------------------|
|---------------------------------------------------|

|---4-----4-----6------6----------8-----8-----8/---13--------------|
|-----6-----6------6-----6----------6-----6------------------------|
|-5-----5-----5------5-----5---5------5-----5----------------------|
|------------------------------------------------------------------|
|------------------------------------------------------------------|
|------------------------------------------------------------------|


|-8-----8------------8-------8-----|
|-----6-----6------6-----6---------|
|----------------------------------|
|----------------------------------|
|----------------------------------|
|----------------------------------|

CHORUS X1

A second guitar is playing this during the chorus:

|----------------------------------|
|----------------------------------|
|--5----------------5--------------|
|-----3-3-3-3----------5-5-5-5-----|
|----------------------------------|
|----------------------------------|

|----------------------------------|
|----------------------------------|
|----------------------------------|
|--5----------------5--3-3-3-3-----|
|-----6-6-6-6----------------------|
|----------------------------------|

SOLO 2:

|---------------------------8----------------------------------------|
|-----------------------------8-11--8-----------------8-11b13--------|
|--8h9----8-9p8----8-10b12-------------10-8---8-10b12----------------|
|------10-------10--------------------------10-----------------------|
|--------------------------------------------------------------------|
|--------------------------------------------------------------------|

A#5, C5, C#5, D#5


|---------------------------------------------------|
|---17b19-------17b19----------17b19-------17b19r17-|
|---------------------------------------------------|
|---------------------------------------------------|
|---------------------------------------------------|
|---------------------------------------------------|

|--13-11------------------------------------------|
|---------13-11-----------------------------------|
|----------------13-10/---8--8--------------------|
|------------------------------10-8-6-------------|
|-------------------------------------8-6~~~------|
|-------------------------------------------------|

A#5, C5, C#5, D#5


|----------------------------------------------------------------------|
|------------------------------4-4----6--------6-9-9-6-9--11b12-11b12--|
|-----------1-1----3-1---1-3/5-----5-----8-8-8-------------------------|
|-3-1---1-3------3-----3-----------------------------------------------|
|-----3----------------------------------------------------------------|
|----------------------------------------------------------------------|

|------------------------------------|
|-11b12-11b12-11b12-12~~~~-----------|
|------------------------------------|
|------------------------------------|
|------------------------------------|
|------------------------------------|

|-----------------------------------------------------|
|-----------------------------------------------------|
|-3-----5----6----8-----10---12----13----15-----------|
|-3-----5----6----8-----10---12----13----15-----------|
|-1-----3----4----6-----8----10----11----13-----------|
|-----------------------------------------------------|

|------------------------------------|
|------------------------------------|
|------------------------------------|
|---11-10--11-10--11-10--11-10-------|
|------------------------------------|
|------------------------------------|

CHORUS X2


Outro:
|-3-------3--------3-------3-----------|-3-----------3---------|
|-2---1---2---1----2---1---2----1------|-2-----1-----2-----1---|
|--------------------------------------|-----------------------|
|--------------------------------------|-----------------------|
|--------------------------------------|-----------------------|
|--------------------------------------|-----------------------|

----------------------------------------------------------------------------
4. ONE WAY STREET

intro.
E|-------------------|
B|-9---9-9---8-8---8-|
G|-8---8-8---7-7---7-|
D|-6---6-6---5-5---5-|
A|-------------------|
E|-------------------|
play this four times

then play this
E|-----------------------------------------------|
B|-----------------------------------------------|
G|-----------------------------------------------|
D|-----------------------------------------------|
A|-3-3-3-3-3-3-3-3-3-3-3-3-3-3-3-3-3-3-3-3-3-3-3-|
E|-----------------------------------------------|

E|------------------|
B|------------------|
G|------------------|
D|-5-5-8---5-5-3----|
A|-3-3-6---3-3-1----|
E|------------------|
play this four times

verse

guitar one
E|-----------------------|
B|-----------------------|
G|-----------------------|
D|-5-5---5-5---5-5---5-5-|
A|-3-3---3-3---3-3---3-3-|
E|-----------------------|
play this four times

guitar two
E|-----------------------|
B|-13-1311-119-98-8---|
G|-----------------------|
D|-----------------------|
A|-----------------------|
E|-----------------------|

chorus (played by both guitars)
E|---------------------------------------------|
B|---------------------------------------------|
G|-5---1---2-----------------------------------|
D|-3---3---0---5-5-5-5-5-5-5-5-5-5-5-5-5-5-5-5-|
A|-------------3-3-0-0-3-3-6-6-3-3-6-6-3-3-6-6-|
E|---------------------------------------------|

E|---------------------------------------------|
B|---------------------------------------------|
G|-5---1---2-----------------------------------|
D|-3---3---0---5-5-5-5-5-5-5-5-5-5-5-5-5-5-5-5-|
A|-------------3-3-0-0-3-3-6-6-3-3-6-6-3-3-6-6-|
E|---------------------------------------------|

E|------------------|
B|------------------|
G|-5---3---3-------|
D|-3---1---5-------|
A|------------------|
E|------------------|

then play this order:
verse
chorus
intro
verse
chorus

bridge
E|-------------------------|
B|-------------------------|
G|-------------------------|
D|---------------------1-1-|
A|-3-3-1-3-3-1-3-3-1-3-----|
E|-------------------------|
repeat this four times.

guitar solo.
(guitar two will play the bridge riff over the solo)
solo.
E|------------------------------------|
B|-12b13-12b13-13-13-13-11-8-8~~~~~~~~|
G|------------------------------------|
D|------------------------------------|
A|------------------------------------|
E|------------------------------------|

E|-----------------------------------|
B|-13p109p8---------12b13p12--10p9p8-|
G|----------11-10-8------------------|
D|-----------------------------------|
A|-----------------------------------|
E|-----------------------------------|

E|-------------------------|
B|-------------------------|
G|-11-10-8-----------------|
D|-------------------------|
A|-----------------6-8-6---|
E|---------6-8-6-8-------8-|

E|---------------------------------------------------------|
B|-11-8-8-11-8-8-11-8-8-11-8-8-11-8-8-11-8-8-11-8-8-11-8-8-|
G|---------------------------------------------------------|
D|---------------------------------------------------------|
A|---------------------------------------------------------|
E|---------------------------------------------------------|

E|----------------------------------|
B|-12b13-12b13-13-13-13-11-8~~~~~~~~|
G|----------------------------------|
D|----------------------------------|
A|----------------------------------|
E|----------------------------------|

----------------------------------------------------------------------------
5. MAMA KIN

|----------------|-------------------|-------------------|------------------|
|----------------|-------------------|-------------------|------------------|
|-9--9---7-9---4-|-(4)-4-4---2-4-----|-----------2---2---|------------------|
|-9--9---7-9---4-|-(4)-4-4---2-4-0-2-|-(2)-2-5-2-2-2-2---|------------------|
|-7--7-x-7-7---2-|-(2)-2-2---2-2-0-0-|-(0)-0-0-0-0-0-0-0-|-2-2-4-2-5-2-4-2--|
|----------------|-------------------|-----------------0-|-0-0-0-0-0-0-0-0--|


Gtr I
Q E E E E E E +E E E E E E E E
|------------------|--------------------|
|------------------|--------------------|
|-9----9---7-9---4-|-(4)--4-4---2-4-----|
|-9----9---7-9---4-|-(4)--4-4---2-4-0-2-|
|-7----7-x-7-7---2-|-(2)--2-2---2-2-0-0-|
|------------------|--------------------|
|
| Gtr II
| H.. E +H.. E
|------------------|--------------------|
|------------------|--------------------|
|-9--------------4-|-(4)--------------2-|
|-9--------------4-|-(4)--------------2-|
|-7--------------2-|-(2)--------------0-|
|------------------|--------------------|


PM PM-------------|
+E E E E E E E E E E E E E E E E
|--------------------|--------------------|
|--------------------|--------------------|
|------------2---2---|--------------------|
|-(2)--2-5-2-2-2-2---|--------------------|
|-(0)--0-0-0-0-0-0-0-|--2--2-4-2-5-2-4-2--|
|------------------0-|--0--0-0-0-0-0-0-0--|
|
| PM----------|
| +H.. E +E E E E E E E E
|--------------------|--------------------|
|--------------------|--------------------|
|-(2)----------------|--------------------|
|-(2)----------------|--------------------|
|-(0)--------------2-|-(2)-2-4-2-5-2-4-2--|
|------------------0-|-(0)-0-0-0-0-0-0-0--|


PM PM-------------|
Q E E E E E E +E E E E E E E E +E E E E E E E E E E E E E E E E
|----------------|-------------------|-------------------|--------------------|
|----------------|-------------------|-------------------|--------------------|
|-9--9---7-9---4-|-(4)-4-4---2-4-----|-----------2---2---|--------------------|
|-9--9---7-9---4-|-(4)-4-4---2-4-0-2-|-(2)-2-5-2-2-2-2---|--------------------|
|-7--7-x-7-7---2-|-(2)-2-2---2-2-0-0-|-(0)-0-0-0-0-0-0-0-|--2--2-4-2-5-2-4-2--|
|----------------|-------------------|-----------------0-|--0--0-0-0-0-0-0-0--|
|
| PM PM PM----------|
| Q E E E E E E +E E E E E E E E +E E E E E E E E +E E E E E E E E
|----------------|-------------------|-------------------|--------------------|
|----------------|-------------------|-------------------|--------------------|
|-9--9---7-9---4-|-(4)-4-4---2-4-----|-------------------|--------------------|
|-9--9---7-9-0-4-|-(4)-4-4---2-4-0-2-|-(2)-2-4p2-5p2-4---|--------------------|
|-7--7-7-7-7-0-2-|-(2)-2-2-2-2-2-0-0-|-(0)-0-0---0---0-2-|-(2)-2-4-2-5-2-4-2--|
|----------------|-------------------|-----------------0-|-(0)-0-0-0-0-0-0-0--|


PM
Q E E E E E E +E E E E E E E E +E E E E E E E E
|----------------|-------------------|-------------------|
|----------------|-------------------|-------------------|
|-9--9---7-9---4-|-(4)-4-4---2-4-----|-----------2---2---|
|-9--9---7-9---4-|-(4)-4-4---2-4-0-2-|-(2)-2-5-2-2-2-2---|
|-7--7-x-7-7---2-|-(2)-2-2---2-2-0-0-|-(0)-0-0-0-0-0-0-0-|
|----------------|-------------------|-----------------0-|
|
| PM PM
| Q E E E E E E +E E E E E E E E +E E E E E E E E
|----------------|-------------------|-------------------|
|----------------|-------------------|-------------------|
|-9--9---7-9---4-|-(4)-4-4---2-4-----|-------------------|
|-9--9---7-9-0-4-|-(4)-4-4---2-4-0-2-|-(2)-2-4p2-5p2-4---|
|-7--7-7-7-7-0-2-|-(2)-2-2-2-2-2-0-0-|-(0)-0-0---0---0-2-|
|----------------|-------------------|-----------------0-|


PM----------------| TP
E E E S S S S E E E E S S H.
|---------------------|----------------------||
|---------------------|----------------------||
|---------------------|----------------------||
|---------------------|----------------------||
|-2-2-4-2---------4-2-|--2------2/-----------||
|-0-0-0-0-0-0-0-0-0-0-|--0--0-0-0/-----------||
|
| PM------------|
| E E E E E E E E +E E E E E E E E
|---------------------|----------------------||
|---------------------|----------------------||
|---------------------|----------------------||
|---------------------|----------------------||
|---2-4-2---5---2-4-2-|-(2)-2----------------||
|---0-0-0---0---0-0-0-|-(0)-0---2--2-3-3-4-4-||


Guitar Solo
E Q +E E E E E E Q E +E E E E
|---14pb15r==(14)-------------|---------------------------|
|-----------------------12-11-|---------------------------|
|-----------------12p11-------|-14--12--------------12----|
|-----------------------------|----------14-(14)-14----14-|
|-----------------------------|---------------------------|
|-----------------------------|---------------------------|
|
| PM----------------|
| E E E E E E E E +E E E E E E E E
|-----------------------------|---------------------------|
|-----------------------------|---------------------------|
|-----------------------------|---------------------------|
|-2--2-----4p==2---5p=2--4----|---------------------------|
|-0--0-----0-------0-----0--2-|-(2)--2-4--2---5---2--4--2-|
|---------------------------0-|-(0)--0-0--0---0---0--0--0-|


E. S E. S Q E +E
|------------------------------------|
|---------12-----14b15---14pb15r(14)-|
|-14----x------x---------------------|
|------------------------------------|
|------------------------------------|
|------------------------------------|
|
| E E E E E E E E
|------------------------------------|
|------------------------------------|
|------------------------------------|
|--2--2----4p2----5p===2--4----------|
|--0--0----0------0-------0-------2--|
|---------------------------------0--|


e S S S S S S S S S S S S S S S S S S S S S S E Q E
|----------------------------------------------|-------------------------------------|
|-12-----14------14p12----14p12----14p12----14p|=12----14p12----14p12----14-12-------|
|--------12------12-------12-------12-------12-|-------12-------12---------------12--|
|-----14------14-------14-------14-------14----|----14-------14-------14-------------|
|----------------------------------------------|-------------------------------------|
|----------------------------------------------|-------------------------------------|
|
| PM--------------------------------| PM
| +E E E E E E E E E E E E E E E E
|----------------------------------------------|-------------------------------------|
|----------------------------------------------|-------------------------------------|
|----------------------------------------------|-------------------------------------|
|----------------------------------------------|-------------------------------------|
|-(2)--2----4-----2-----5-----2-----4-----2----|--------2-----4p====2-----5p=2-4p=2--|
|-(0)--0----0-----0-----0-----0-----0-----0----|--------0-----0-----------0----0-----|


|--3--|
Q +E E E S S S E E E E E E +E Q E
|-14pb15r==(14)12-------------------|----------------------------|
|-----------------15-14h15p14-12----|-----------12-(12)-12-------|
|--------------------------------12p|=11---------------------12-|
|-----------------------------------|-----14-12------------------|
|-----------------------------------|----------------------------|
|-----------------------------------|----------------------------|
|
| PM----------------|
| E E E E E E E E +E E E E E E E E
|-----------------------------------|----------------------------|
|-----------------------------------|----------------------------|
|-----------------------------------|----------------------------|
|--2-----2---4p=2--5p=2--------4----|----------------------------|
|--0-----0---0-----0-----------0--2-|-(2)--2--4--2---5---2-4--2--|
|---------------------------------0-|-(0)--0--0--0---0---0-0--0--|


E Q +E E E E E Q. S S S S S S Q
|---4pb5r==(4)-2-------|-------------------------|
|----------------4-2---|-------------------------|
|--------------------2-|-1------1h2p1h2p1h2p1/---|
|----------------------|-------------------------|
|----------------------|-------------------------|
|----------------------|-------------------------|
|
| E E E E E E E E E E E E E E E E
|----------------------|-------------------------|
|----------------------|-------------------------|
|-2-2----2--2--2-2-2-2-|-2--2-2-2---2---2---2--2-|
|-4-4----4--4--4-4-4-4-|-4--4-4-4---4---4---4--4-|
|-4-4----4--4--4-4-4-4-|-4--4-4-4---4---4---4--4-|
|-2-2----2--2--2-2-2-2-|-2--2-2-2---2---2---2--2-|


E E Q E E E E E E E E +E +E E S S
|---7--9b10----------------|--------------------------------|
|-x------------7-----------|---------------------------7h10p|
|----------------7--7-9b10-|-----9----9b10==(9)r(9)--7------|
|--------------------------|--------------------------------|
|--------------------------|--------------------------------|
|--------------------------|--------------------------------|
|
| E E E E E E E E +E E E E E E E E
|--------------------------|--------------------------------|
|--------------------------|--------------------------------|
|--------------------------|--------------------------------|
|--------------------------|--------------------------------|
|-9-9-11p===9-12p9-11-9----|-(9)-9-11-9-----12---9--11------|
|-7-7--7-------7----7-7----|-(7)-9--9-9------9---9---9-0----|


E E E E E S S E E +E E e E +Q. E
|--------------------------|--------------------------||
|-7---7--------------------|--------------------------||
|---9---7-9b10-x-x-x-9b10==|=(9)r-x-9-9b11==(9)r------||
|--------------------------|--------------------------||
|--------------------------|--------------------------||
|--------------------------|--------------------------||
|
| E E E E E E E E E E Q H
|--------------------------|--------------------------||
|--------------------------|--------------------------||
|--------------------------|--------------------------||
|--------------------------|--------------------------||
|-5-5-6-6-7----7---8-8-----|--9-----------------------||
|-3-3-4-4-5----5---6-6-----|--7-----------------------||


Gtr I
PM PM PM PM--------------|
Q E E E E E E +E E E E E E E E +E E E E E E E E E E E E E E S S E
|----------------|-------------------|-------------------|-------------------|
|----------------|-------------------|-------------------|-------------------|
|-9--9-7-7-9---4-|-(4)-4-4---2-4---2-|-(2)-------2-------|-------------------|
|-9--9-7-7-9-9-4-|-(4)-4-4---2-4---2-|-(2)-2-4-2-2---2---|-------------------|
|-7--7-7-7-7---2-|-(2)-2-2-2-2-2-0-0-|-(0)-0-0-0-0-0-0-0-|-2-2-4-2-5-2-4-4-2-|
|----------------|-------------------|-----------------0-|-0-0-0-0-0-0-0-0-0-|


Gtr I
PM--------|
Q Q E Q E +E E E E E E E E +E E E E E E E E E E E E E E E E
|----------------|--------------------|-------------------|--------------------|
|----------------|--------------------|-------------------|--------------------|
|-9----9--7-9--4-|-(4)--4-4-4-2-4---2-|-(2)-------2-------|--------------------|
|-9----9--7-9--4-|-(4)--4-4-4-2-4---2-|-(2)-2-4-2-2---2---|-----------------2--|
|-7----7--7-7--2-|-(2)--2-2-2-2-2-0-0-|-(0)-0-0-0-0-0-0-2-|-----2-4-2-5-2-4-2--|
|----------------|--------------------|-----------------0-|-----0-0-0-0-0------|
|
| Gtr II
| PM PM--------|
| H.. E +H.. E +Q Q E E E E +E E E E E E E E
|----------------|--------------------|-------------------|--------------------|
|----------------|--------------------|-------------------|--------------------|
|-9------------4-|-(4)--------------2-|-(2)---2---2---2---|--------------------|
|-9------------4-|-(4)--------------2-|-(2)---2---2---2---|--------------------|
|-7------------2-|-(2)--------------0-|-(0)---0---0-0-0-2-|-(2)-2-4-2-5-2-4-2--|
|----------------|--------------------|-----------------0-|-(0)-0-0-0-0-0-0-0--|


Q Q +e Q. Q E E +E E E E
|--------------------------|----------------------------|
|--------------------------|----------------------------|
|--------------------------|----------------------------|
|--2----4b5====(4)r-2------|--4b5-----4b5==(4)r---4b5---|
|--2-----------------------|----------------------------|
|--------------------------|----------------------------|
|
| PM---------------| PM--------------|
| E E E E E E E E +E E E E E E E E
|--------------------------|----------------------------|
|--------------------------|----------------------------|
|--------------------------|----------------------------|
|--------------------------|----------------------------|
|-(2)-2-4----2--5---2--4-2-|-(2)--2-4-2-----5---2-4---2-|
|-(0)-0-0----0--0---0--0-0-|-(0)--0-0-0-----0---0-0---0-|


E e e e e S S Q
|----------------------------||
|----------------------------||
|----------------------------||
|-----4b4.5==4-4-4r-4p2-4/---||
|----------------------------||
|----------------------------||
|
| PM----------------|
| +E E E E E E E E
|----------------------------||
|----------------------------||
|----------------------------||
|----------------------------||
|-(2)-2------4-2-5--2---4--2-||
|-(0)-0------0-0-0--0---0--0-||


Verse 1
PM| PM PM| PM PM--------|
Q E E E E E E +E E E E E E E E +E E E E E E E E
|-----------------|-------------------|-------------------|
|-----------------|-------------------|-------------------|
|-9---9-----9---4-|-(4)---4-----4---2-|-(2)---------------|
|-9---9---7-9---4-|-(4)-4-4---2-4---2-|-(2)-2-4-2-2-4-2---|
|-7---7-7-7-7-7S2-|-(2)-2-2-2-2-2-0-0-|-(0)-0-0-0-0-0-0-2-|
|-----------------|-------------------|-----------------0-|
|
| E E Q H W H Q E E
|-----------------|-------------------|-------------------|
|-----------------|-------------------|-------------------|
|-----------------|-------------------|-------------------|
|-2---------------|-------------------|-----------------2-|
|-2---------------|-------------------|-----------------2-|
|-0---------------|-------------------|-----------------0-|


PM|
E E E E E E E E +E E E E E E S S E Q E E E E E E
|-------------------|---------------------|-----------------|
|-------------------|---------------------|-----------------|
|-------------------|---------------------|-9---9-----9---4-|
|-----------------2-|-(2)-----------------|-9---9---7-9---4-|
|-----2-4-2-5-2-4-2-|-(2)-2-4-2-5-2-4-4-2-|-7---7-7-7-7-7S2-|
|-----0-0-0-0-0-0-0-|-(0)-0-0-0-0-0-0-0-0-|-----------------|
|
| PM--------| PM------------|
| +E E E E E E E E +E E E E E E E E E E Q H
|-------------------|---------------------|-----------------|
|-------------------|---------------------|-----------------|
|-------------------|---------------------|-----------------|
|-(2)-------------2-|-(2)-----------------|-2---------------|
|-(2)-2-4-2-5-2-4-2-|-(2)-2-4-2-5-2-4---2-|-2---------------|
|-(0)-0-0-0-0-0-0-0-|-(0)-0-0-0-0-0-0---0-|-0---------------|


PM PM PM--------|
+E E E E E E E E +E E E E E E E E
|-------------------|-------------------|
|-------------------|-------------------|
|-(4)---4p2---4---2-|-(2)---------------|
|-(4)-4-4p2-2-4---2-|-(2)-2-4-2-2-4-2---|
|-(2)-2-2---2-2-0-0-|-(0)-0-0-0-0-0-0-2-|
|-------------------|-----------------0-|
|
| W H Q E E
|-------------------|-------------------|
|-------------------|-------------------|
|-------------------|-------------------|
|-------------------|-----------------2-|
|-------------------|-----------------2-|
|-------------------|-----------------0-|


+E E E E E E E E +E E E E E E S S E
|-------------------|---------------------|
|-------------------|---------------------|
|-------------------|---------------------|
|-----------------2-|-(2)-----------------|
|-(2)-2-4-2-5-2-4-2-|-(2)-2-4-2-5-2-4-4-2-|
|-(0)-0-0-0-0-0-0-0-|-(0)-0-0-0-0-0-0-0-0-|
|
| PM--------| PM------------|
| +E E E E E E E E +E E E E E E E E
|-------------------|---------------------|
|-------------------|---------------------|
|-------------------|---------------------|
|-(2)-------------2-|-(2)-----------------|
|-(2)-2-4-2-5-2-4-2-|-(2)-2-4-2-5-2-4---2-|
|-(0)-0-0-0-0-0-0-0-|-(0)-0-0-0-0-0-0---0-|


PM| PM PM| PM PM PM PM
Q E E E E E E +E E E E E E E E +E E E E E E E E
|-----------------|-------------------|-------------------|
|-----------------|-------------------|-------------------|
|-9---9-----9---4-|-(4)---4-----4---2-|-(2)---------------|
|-9---9---7-9---4-|-(4)-4-4---2-4---2-|-(2)-2-5-2-5p2-5---|
|-7---7-7-7-7-7S2-|-(2)-2-2-2-2-2-0-0-|-(0)-0-0-0-0---0---|
|-----------------|-------------------|-----------------0-|
|
| E E Q H W H Q E E
|-----------------|-------------------|-------------------|
|-----------------|-------------------|-------------------|
|-----------------|-------------------|-------------------|
|-2---------------|-------------------|-----------------2-|
|-2---------------|-------------------|-----------------2-|
|-0---------------|-------------------|-----------------0-|


PM-----------| PM--------|
E E E E E E E E E E E E E E E E
|-------------------|--------------------|
|-------------------|--------------------|
|-------------------|--------------------|
|-------------------|--------------------|
|--2--2-4-2-5-2-4-2-|-----2-4-2-5-2-4/---|
|--0--0-0-0-0-0-0-0-|-----0-0-0-0-0-0----|
|
| PM--------| PM-----------|
| +E E E E E E E E +E E E E E E E E
|-------------------|--------------------|
|-------------------|--------------------|
|-------------------|--------------------|
|-(2)-------------2-|-(2)----------------|
|-(2)-2-4-2-5-2-4-2-|-(2)-2-4-2-5-2-4--2-|
|-(0)-0-0-0-0-0-0-0-|-(0)-0-0-0-0-0-0--0-|


PM| PM PM| PM
Q E E E E E E +E E E E E E E E
|-----------------|--------------------|
|-----------------|--------------------|
|-9---9-----9---4-|-(4)---4-----4---2--|
|-9---9---7-9---4-|-(4)-4-4---2-4---2--|
|-7---7-7-7-7-7S2-|-(2)-2-2-2-2-2-0-0--|
|-----------------|--------------------|
|
| E E Q H W
|-----------------|--------------------|
|-----------------|--------------------|
|-----------------|--------------------|
|-2---------------|--------------------|
|-2---------------|--------------------|
|-0---------------|--------------------|


+E E E E E E E E +E E E E E E E E
|-------------------|-------------------|
|-------------------|-------------------|
|-(2)---------------|-------------------|
|-(2)-2-5-2-2-5-2---|-------------------|
|-(0)-0-0-0-0-0-0-2-|-(2)-2-4-2-5-2-4-2-|
|-----------------0-|-(0)-0-0-0-0-0-0-0-|
|
| PM--------|
| H Q E E +E E E E E E E E
|-------------------|-------------------|
|-------------------|-------------------|
|-------------------|-------------------|
|-----------------2-|-(2)-------------2-|
|-----------------2-|-(2)-2-4-2-5-2-4-2-|
|-----------------0-|-(0)-0-0-0-0-0-0-0-|


Pre-Chorus
PM-| PM----------|
E E E E E E E E E E E E E E E E
|-------------------||------------------|
|-------------------||------------------|
|-------------------||------------------|
|-------------------||-2----------------|
|-------4-2-5-2-4-2-||-0-0-0-0-0-0-0-2--|
|--0--0-0-0-0-0-0-0-||---------------0--|
|
| PM----------|
| +E E E E E E E E E E E E E E E E
|-------------------||------------------|
|-------------------||------------------|
|-------------------||------------------|
|-(2)---------------||-2-2-4p2-5p2-4----|
|-(2)-2-4-2-5-2-4-2-||-0-0-0---0---0-2--|
|-(0)-0-0-0-0-0-0-0-||---------------0--|


PM----------------------------------
E E E E E E E E E E E E E E E E
|-------------------|-----------------|
|-------------------|-----------------|
|-------------------|-----------------|
|-------------------|-2-2-4-2-5-2-4-2-|
|--2--2-4-2-5-2-4-2-|-0-0-0-0-0-0-0-0-|
|--0--0-0-0-0-0-0-0-|-----------------|
|
| PM----------------------------~~~
| +E E E E E E E E E E E E E E E E
|-------------------|-----------------|
|-------------------|-----------------|
|-------------------|-----------------|
|-------------------|-2-2-4-2-5-2-4---|
|-(2)-2-4-2-5-2-4-2-|-0-0-0-0-0-0-0---|
|-(0)-0-0-0-0-0-0-0-|---------------3-|


---------------------------------------------|
E E E E E E E E E E E E E E E E
|-------------------|---------------------------|
|-------------------|---------------------------|
|-------------------|---------------------------|
|-------------------|---------------------------|
|--2--------------2-|--2--2-4-2-----5--2----4-2-|
|--0--0-0-0-0-0-0-0-|--0--0-0-0-----0--0----0-0-|
|
|~~~~~
| +H. E E +Q. E +E S S Q
|-------------------|---------------------------|
|-------------------|---------------------------|
|-------------------|---------------------------|
|-------------------|---------------------------|
|-------------------|---------------------------|
|-(3)-----------3-0-|-(0)-----3b4==(3)-4p3rp0---|


E E E E E E E E +E E E E E E E E E E E E E E E E E E E E E E E S S
|-----------------|-------------------|-----------------|-------------------|
|-----------------|-------------------|-----------------|-------------------|
|-----------------|-------------------|-----------------|---3---3---3-3-----|
|-2-2-4-2-5-2-4---|-------------------|---4---4---4---4-|---4---4---4-4-----|
|-0-0-0-0-0-0-0-2-|-(2)-2-4-2-5-2-4-2-|---4---4---4---4-|---4---4---4-4-x-x-|
|---------------0-|-(0)-0-0-0-0-0-0-0-|---2---2---2---2-|---2---2---2-2-x-x-|
|
| PM----------|
| E E E E E E E E +E E E E E E E E E E E E E E E E E E E E E E E E
|-----------------|-------------------|-----------------|-------------------|
|-----------------|-------------------|-----------------|-------------------|
|-----------------|-------------------|-2-2-2-2-2-2-2-2-|-2-2-2-2-2-2-2-2---|
|-2-2-4p2-5p2-4---|-------------------|-4-4-4-4-4-4-4-4-|-4-4-4-4-4-4-4-4---|
|-0-0-0---0---0-2-|-(2)-2-4-2-5-2-4-2-|-4-4-4-4-4-4-4-4-|-4-4-4-4-4-4-4-4---|
|---------------0-|-(0)-0-0-0-0-0-0-0-|-2-2-2-2-2-2-2-2-|-2-2-2-2-2-2-2-2---|


H +E E E E +E E E E E E E E
|--------------------|----------------------|
|--------------------|----------------------|
|--------------------|----------------------|
|-9--------(9)7--8-9-|-(9)-9--9-9--9-9--9---|
|-9--------(9)7--8-9-|-(9)-9--9-9--9-9--9---|
|-7--------(7)-----7-|-(7)-7--7-7--7-7--7-x-|
|
| E E E E E E E E +E E E E E E E E
|--------------------|----------------------|
|--------------------|----------------------|
|--------------------|----------------------|
|--------------------|----------------------|
|-9-9-11p9-12p9-11-9-|-(9)-9-11-9-12-9-11---|
|-7-7--7----7----7-7-|-(7)-9--9-9--9-9--9-0-|


E E E E E S S E E Q Q E E Q
|-------------------|-----------------||
|-------------------|-----------------||
|-------------------|-----------------||
|-------------------|-----------x/----||
|-5-5-6-6-7-x-x-8-8-|-9--------x/----||
|-3-3-4-4-5-x-x-6-6-|-7--------------||
|
| E E E E E E E E E E Q H
|-------------------|-----------------||
|-------------------|-----------------||
|-------------------|-----------------||
|-------------------|-----------------||
|-5-5-6-6-7-7---8-8-|-9---------------||
|-3-3-4-4-5-5---6-6-|-7---------------||


Verse 2 & 3
$
PM| PM PM| PM
Q E E E E E E +E E E E E E E E +E E E E E E E E
|-----------------|-------------------|-------------------|
|-----------------|-------------------|-------------------|
|-9---9-----9---4-|-(4)---4-----4---2-|-(2)---------------|
|-9---9---7-9---4-|-(4)-4-4---2-4---2-|-(2)-2-5-2-2-5-2---|
|-7---7-7-7-7-7S2-|-(2)-2-2-2-2-2-0-0-|-(0)-0-0-0-0-0-0-2-|
|-----------------|-------------------|-----------------0-|
|
| E E Q H W H Q E E
|-----------------|-------------------|-------------------|
|-----------------|-------------------|-------------------|
|-----------------|-------------------|-------------------|
|-2---------------|-------------------|-----------------2-|
|-2---------------|-------------------|-----------------2-|
|-0---------------|-------------------|-----------------0-|


PM PM| PM
E E E E E E E E E E E E E E E E Q E E E Q E +E E E E E E E E
|-------------------|-------------------|-----------------|--------------------|
|-------------------|-------------------|-----------------|--------------------|
|-------------------|-------------------|-9---9p7---9--4-|-(4)---4-----4---2--|
|-------------------|-------------------|-9---9p7-7-9--4-|-(4)-4-4---2-4---2--|
|--2--2-4-2-5-2-4-2-|-----2-4-2-5-2-4-2-|-7---7---7-7--2-|-(2)-2-2-2-2-2-0-0--|
|--0--0-0-0-0-0-0-0-|-----0-0-0-0-0-0-0-|-----------------|--------------------|
|
| PM--------| PM----------|
| +E E E E E E E E +E E E E E E E E E E Q H W
|-------------------|-------------------|-----------------|--------------------|
|-------------------|-------------------|-----------------|--------------------|
|-------------------|-------------------|-----------------|--------------------|
|-(2)-------------2-|-(2)---------------|-2---------------|--------------------|
|-(2)-2-4-2-5-2-4-2-|-(2)-2-4-2-5-2-4-2-|-2---------------|--------------------|
|-(0)-0-0-0-0-0-0-0-|-(0)-0-0-0-0-0-0-0-|-0---------------|--------------------|


PM----------------|
+E E E E E E E E E E E E E E E E
|-------------------|-------------------|
|-------------------|-------------------|
|-(2)---------------|-------------------|
|-(2)-2-4-2-2-5-2---|-----------------2-|
|-(0)-0-0-0-0-0-0-2-|--2--2-4-2-5-2-4-2-|
|-----------------0-|--0--0-0-0-0-0-0-0-|
|
| PM--------|
| H Q E E +E E E E E E E E
|-------------------|-------------------|
|-------------------|-------------------|
|-------------------|-------------------|
|-----------------2-|-(2)-------------2-|
|-----------------2-|-(2)-2-4-2-5-2-4-2-|
|-----------------0-|-(0)-0-0-0-0-0-0-0-|


Pre-Chorus
+E E E E E E E E E E E E E E E E
|-------------------||------------------|
|-------------------||------------------|
|-------------------||------------------|
|-(2)---------------||-2-2-4-2-5-2-4----|
|-(2)-2-4-2-5-2-4-2-||-0-0-0-0-0-0-0-2--|
|-(0)-0-0-0-0-0-0-0-||---------------0--|
|
| PM----------|
| +E E E E E E E E E E E E E E E E
|-------------------||------------------|
|-------------------||------------------|
|-------------------||------------------|
|-(2)---------------||-2-2-4p2-5p2-4----|
|-(2)-2-4-2-5-2-4-2-||-0-0-0---0---0-2--|
|-(0)-0-0-0-0-0-0-0-||---------------0--|


E E E E E E E E E E E E E E E E
|-----------------|-----------------|
|-----------------|-----------------|
|-----------------|-----------------|
|-----------------|-2-2-4-2-5-2-4-2-|
|---2-4-2-5-2-4-2-|-0-0-0-0-0-0-0-0-|
|---0-0-0-0-0-0-0-|-----------------|
|
| PM----------------------------~~~
| E E E E E E E E E E E E E E E E
|-----------------|-----------------|
|-----------------|-----------------|
|-----------------|-----------------|
|-----------------|-2-2-4-2-5-2-4---|
|-2-2-4-2-5-2-4-2-|-0-0-0-0-0-0-0---|
|-0-0-0-0-0-0-0-0-|---------------3-|


E E E E E E E E +E E E S S S S E E E
|-------------------|------------------------|
|-------------------|------------------------|
|-------------------|------------------------|
|-------------------|------------------------|
|--2--------------2-|-(2)--------------------|
|--0--0-0-0-0-0-0-0-|-(0)-0-0-0-0-2-2-2-3-4--|
|
|~~~~~
| +H. E E +H S S E Q
|-------------------|------------------------|
|-------------------|------------------------|
|-------------------|------------------------|
|-------------------|------------------------|
|-------------------|------------------------|
|-(3)-----------3-0-|-(0)---------0-0-0-0----|


PM----------------|
E E E E E E E E E E E E E E E E E E E E E E E E E E E E E E E E
|-----------------|-------------------|-----------------|------------------|
|-----------------|-------------------|-----------------|------------------|
|-----------------|-------------------|-----------------|---3---3---3-3----|
|-2-2-4-2-5-2-4---|-------------------|---4---4---4---4-|---4---4---4-4----|
|-0-0-0-0-0-0-0---|-----------------2-|---4---4---4---4-|---4---4---4-4----|
|---------------0-|--0--0-0-0-0-0-0-0-|---2---2---2---2-|---2---2---2-2----|
|
| PM----------|
| E E E E E E E E +E E E E E E E E E E E E E E E E E E E E E E E E
|-----------------|-------------------|-----------------|------------------|
|-----------------|-------------------|-----------------|------------------|
|-----------------|-------------------|-2-2-2-2-2-2-2-2-|-2-2-2-2-2-2-2-2--|
|-2-2-4p2-5p2-4---|-------------------|-4-4-4-4-4-4-4-4-|-4-4-4-4-4-4-4-4--|
|-0-0-0---0---0-2-|-(2)-2-4-2-5-2-4-2-|-4-4-4-4-4-4-4-4-|-4-4-4-4-4-4-4-4--|
|---------------0-|-(0)-0-0-0-0-0-0-0-|-2-2-2-2-2-2-2-2-|-2-2-2-2-2-2-2-2--|


2/4
Q Q E E E E +E E Q E E E E E E E E E E E E q q
|-----------7-7--7---|--------7---------7---|-----------------|-------||
|-----------7-7--7---|--------7-----------7-|-----------------|-------||
|-----------8-8--8---|--------8-------------|-----------------|-------||
|-9----9-----------9-|-(9)-9----------------|-9-9-x-x-x-x-x-x-|-------||
|-9----9-----------9-|-(9)-9-------9-9------|-9-9-x-x-x-x-x-x-|-9--9--||
|-7----7-----------7-|-(7)-7-------7-7------|-----------------|-7--7--||
|
| E E E E E E E E +E E E E E E E E E E E E E E E E q q
|--------------------|----------------------|-----------------|-------||
|--------------------|----------------------|-----------------|-------||
|--------------------|----------------------|-----------------|-------||
|--------------------|----------------------|-----------------|-------||
|-9-9-11p9-12p9-11-9-|-(9)-9-11-9-12-9-11---|-5-5-6-6-7-7-8-8-|-9--9--||
|-7-7--7----7----7-7-|-(7)-9--9-9--9-9--9-0-|-3-3-4-4-5-5-6-6-|-7--7--||


Chorus
4/4
Gtr I
Q Q H H q q Q Q H
|-------------|------------|-------------|
|-------------|------------|-------------|
|-9----------|------------|-9----------|
|-9----------|------------|-9----------|
|-7----------|------9--9--|-7----------|
|-------------|------7--7--|-------------|


H q q Q Q H H q q q Q H
|------------|-------------|------------|------------|
|------------|-------------|------------|------------|
|------------|-9----------|------------|-9----------|
|------------|-9----------|------------|-9----------|
|------9--9--|-7----------|------9--9--|-7----------|
|------7--7--|-------------|------7--7--|------------|


Gtrs I, II
H q q Q E E +E E E E E E Q Q Q Q E E +E E E E 3x
|------------|------------------||---------------|--------------------||
|------------|------------------||o--------------|-------------------o||
|------------|------9-(9)-9---9-||--7-7----------|------9-(9)-9---9---||
|------------|-9----7-(7)-7---7-||--5-5-7--------|-9----7-(7)-7---7---||
|------9--9--|-7----------------||o-----5--9--9--|-7-----------------o||
|------7--7--|------------------||---------7--7--|--------------------||


Interlude (Sax Solo)
To Coda
2/4 4/4
Gtr I
E E Q H.. E E E E E E E S S E
|--------||-------------------|-------------------|
|--------||-------------------|-------------------|
|-7-7----||-------------------|-------------------|
|-5-5-7--||-5---------------5-|---5---5---5-5-5-5-|
|-----5--||-3---------------3-|---3---3---3-3-3-3-|
|--------||-------------------|-------------------|
|
| Gtr II
| E E Q E E E E E E E E E E E E E E E E
|--------||-------------------|-------------------|
|--------||-------------------|-------------------|
|-7-7----||-------------------|-------------------|
|-5-5-7--||-5---5-7-5-5-5-7-7-|-5-5-7-5-5-5-7---7-|
|-----5--||-3---3-3-3-3-3-3-3-|-3-3-3-3-3-3-3---3-|
|--------||-------------------|-------------------|


H. E E +E Q E +Q Q +E Q E Q E E
|-----------------|--------------------|--------------------|
|-----------------|--------------------|--------------------|
|-----------------|--------------------|-----------------/9-|
|-4-------------4-|-(4)-4---4-(4)--4---|-(4)-2-----2--------|
|-2p==========0-2-|-(2)-2---2-(2)------|---------0----------|
|-----------------|--------------------|--------------------|
|
| E E E E E E E E E E E E Q E E Q Q E E E E
|-----------------|--------------------|--------------------|
|-----------------|--------------------|--------------------|
|-----------------|--------------------|--------------------|
|-4-4-6-6-4-4-6-6-|--4--4-6-6--4-------|--2--------2-2----5-|
|-2-2-2-2-2-2-2-2-|--2--2-2-2--2-------|--0--------0-0------|
|-----------------|----------------3-4-|--------------------|


+E Q. E E E E +E E E E Q Q
|----------------------|-----17---17-17---14b14.5---|
|----------------------|-----17---17-17---14b14.5---|
|-(9)-9-------9--9-9-9-|-(9)------------------------|
|----------------------|----------------------------|
|----------------------|----------------------------|
|----------------------|----------------------------|
|
| +Q E E +E E Q Q Q E E E E
|----------------------|----------------------------|
|----------------------|----------------------------|
|----------------------|----------------------------|
|-(5)----5-4-(4)---4---|--2-----------2-2---------5-|
|----------------0-----|--0-----------0-0-----------|
|----------------------|----------------------------|


D.S. al Coda
~~~~~~~~~~~~~~~
E Q E +E Q +E
|---15----------------------||
|--------14-(14)------------||
|----------------12---(12)-||
|---------------------------||
|---------------------------||
|---------------------------||
|
| Q E E +E E Q
|---------------------------||
|---------------------------||
|---------------------------||
|-5----5--4--(4)----4-------||
|-----------------0---------||
|---------------------------||


Outro
E=216
&
7/8 3/8
H. E E H. E Q E 6x
|------------------|----------------||--7------||
|------------------|----------------||o-7-----o||
|------------------|----------------||--7------||
|-5------------5-5-|-7--------------||--6------||
|-3------------3-3-|-5--------------||o-7-----o||
|------------------|--------------0-||------0--||
|
| E E E E E E E E E E E E E E E Q. 6x
|------------------|----------------||--7------||
|------------------|----------------||o-7-----o||
|------------------|----------------||--7------||
|-5--5-7-5-5-5-7-5-|-7--7-9-7-7-9---||--6------||
|-3--3-3-3-3-3-3-3-|-5--5-5-5-5-5---||o-7-----o||
|------------------|----------------||---------||


4/4
E E E W +W W
|-7-----|----------|------------|-------------*|
|-7-----|----------|------------|-------------*|
|-7-----|-9--------|-(9)--------|-------------*|
|-6-----|-9--------|-(9)--------|-------------*|
|-7-----|-7--------|-(7)--------|-------------*|
|---0-0-|----------|------------|-------------*|
|
| Q E W +W Q Q H
|-7-----|----------|------------|-------------*|
|-7-----|----------|------------|-------------*|
|-7-----|-9--------|-(9)--------|-9----------*|
|-6-----|-9--------|-(9)--------|-9----------*|
|-7-----|-7--------|-(7)--------|-7----------*|
|-------|----------|------------|-0-----------*|


Fill 1
Q=156
PM------------~~~~~~~~
E E E E E E E E +H. E E +E E E E E E E E
|-----------------|--------------|-------------------|
|-----------------|--------------|-------------------|
|-----------------|--------------|-------------------|
|-2-2-4-2-5-2-4---|--------------|-------------------|
|-0-0-0-0-0-0-0---|--------------|-------------------|
|---------------3-|-(3)------3-0-|-(0)-0-2-2-3-3-4-4-|


Fill 2
E E E E E E E E E E E E E E E E E E E E E E E E
|---2---2---2---2-|---2---2---2-2-2-|-7-7-7-7-7-7-7-7-|
|---2---2---2---2-|---2---2---2-2-2-|-7-7-7-7-7-7-7-7-|
|---3---3---3---3-|---3---3---3-3-3-|-8-8-8-8-8-8-8-8-|
|-----------------|-----------------|-----------------|
|-----------------|-----------------|-----------------|
|-----------------|-----------------|-----------------|


+Q Q +E E E E E S S E S S E S S E E
|-(7)--7--(7)-7-7-7-|-----------------------|
|-(7)--7--(7)-7-7-7-|-----------------------|
|-(8)--8--(8)-8-8-8-|-----------------------|
|-------------------|-5-----6-----7-----8-8-|
|-------------------|-5-----6-----7-----8-8-|
|-------------------|-3-x-x-4-x-x-5-x-x-6-6-|

----------------------------------------------------------------------------
6. WRITE ME A LETTER

guitar 1(Joe)
E------------------------------------|
B------------------------------------|
G------------------------------------|
D--5--3----------3--3-----2--2-------|
A--------5-5-------------------------|
E-------------3--------3---------3---| repeat

I find it easiest to use my thumb when playing the lower notes.

(pay more attention to the rhythm and the feel than to the numbers)
E------------------------------------------------3-|
B------------------------------------------------3-|
G------------------------------------------------4-|
D-5-7--5-7---5-7--5-7---7-9--7-9--3-3-x-4-4-x-5--5-|
A-3-3--3-3---3-3--3-3---5-5--5-5--3-3-x-4-4-x-5----|
E---------------------------------1-1-x-2-2-x-3----|

guitar 2(Brad)
E---------------------|
B----------3--0-------|
G---0--3b--------3----|
D---------------------|
A---------------------|
E---------------------|

verse/main riff-
E-----------------------------------------------|
B-----------------------------------------------|
G-----------------------------------------------|
D-------------------------5-5-7-5-7--5-5-7-5-7--|
A---5-5-7-5-7--5-5-7-5-7--3-3-3-3-3--3-3-3-3-3--|
E---3-3-3-3-3--3-3-3-3-3------------------------|

E------------------------|
B------------------------|
G------------------------|
D--7-7-9-7-9--3---4---5--|
A--5-5-5-5-5--3---4---5--|
E-------------1---2---3--| continue similar pattern

before the harmonica solo:
E---3------------------------------|
B---3------------------------------|
G---4---------------------------3--|
D---5---------------------3--5-----|
A---5------------3--4--5-----------|
E---3------3--6--------------------|

After the harmonica solo:
E----------------------------------------------------|
B----------------------------------------------------|
G-------------------------------5-0-7-5----7-5-------|
D---5---7-7-----5---7-7----5----5-0-7-5--0-7-5-0-5-7-|
A-0-5-0-7-7---0-5-0-7-7--0-5-0--3-0-5-3--0-5-3-0-5-7-|

-----------------------------
|  акорди, навчання, відео  |
|     http://akords.org     |
-----------------------------

 (голосів: 0)
   Інші пісні:
  • Somebody
  • 74 Jailbreak
  • Jailbreak
  • One Way Street 2
  • Write Me
  •  
    Шановний відвідувач, Ви зайшли на сайт як незареєстрований користувач. Ми рекомендуємо Вам реєструватися або зайти на сайт під своїм ім'ям.

    Додавання коментаря

    Ім'я:*
    E-Mail:*
    Коментар:
    Введіть два слова, показані на зображенні: *
     
      

    BLIBL-створити сайт безкоштовно