Зробити стартовою  |  Додати в вибране
 
Пошук по сайту:  
  логін: пароль:  
    Реєстрація на сайті   Нагадати пароль?    

Видавництво Симфонія | Книжкова фабрика

akords.org » A » Adams Bryan » Here I Am 3
Знайти необхідні акорди

Adams Bryan - Here I Am 3  табулатура

|--12--14--12p0-0-0-----|
|-----------------------|
|-----------------------| repeat 15 times
|-----------------------|
|-----------------------|
|-----------------------|

(this part is quite confusing. I am not sure if it is a guitar or some special
effect has been added)
|--------16-------------|--------------|
|-----------------------|--------------|
|-----------------------|--------------|
|-----------------------|--------------|
|-----------------------|--------------|
|-----------------------|--------------|

|------12-12-12-12-12-12|-12------12-------12----|
|------12-12-12-12-12-12|-----12------12---------|
|-----------------------|------------------------|
|-----------------------|------------------------|
|-----------------------|------------------------|
|-----------------------|------------------------|


|--1214-14-14-14-12--|7(pm)-7(pm)-7-7|--------|
|--1214-14-14-14-12--|7(pm)-7(pm)-7-7|--------|
|---------------------|------------------------|
|---------------------|------------------------|
|---------------------|------------------------|
|---------------------|------------------------|

|----9(pm)-9(pm)--9-9-9-|7-79-9-9-9-7-----------|
|----9(pm)-9(pm)--9-9-9-|7-79-9-9-9-7-----------|
|-----------------------|------------------------|
|-----------------------|------------------------|
|-----------------------|------------------------|
|-----------------------|------------------------|

|----7-7-7-7-7----------|---0-0-0-0-0-0----------|
|----7-7-7-7-7----------|---57-7-7-7-5----------|
|-----------------------|------------------------|
|-----------------------|------------------------|
|-----------------------|------------------------|
|-----------------------|------------------------|

|------------------------|-----0-0-0-0-0-0--------|
|---------5--------------|-----59-9-9-9-7---5----|
|----4h6----6------------|--------------------6---|
|------------------------|------------------------|
|------------------------|------------------------|
|------------------------|------------------------|

|----4-4-4-5-4-5-4-5----|------------------------|
|----5-5-5-5-5-5-5-5----|------------------------|
|-----------------------|------------------------|
|-----------------------|------------------------|
|-----------------------|------------------------|
|-----------------------|------------------------|

-----------------------------
|  акорди, навчання, відео  |
|     http://akords.org     |
-----------------------------

 (голосів: 0)
   Інші пісні:
  • Sleeping Village
  • Warning
  • Dont Pass Me By
  • Marlboro Man
  • Adams Song
  •  
    Шановний відвідувач, Ви зайшли на сайт як незареєстрований користувач. Ми рекомендуємо Вам реєструватися або зайти на сайт під своїм ім'ям.

    Додавання коментаря

    Ім'я:*
    E-Mail:*
    Коментар:
    Введіть два слова, показані на зображенні: *
     
      

    BLIBL-створити сайт безкоштовно