Зробити стартовою  |  Додати в вибране
 
Пошук по сайту:  
  логін: пароль:  
    Реєстрація на сайті   Нагадати пароль?    

Видавництво Симфонія | Книжкова фабрика

akords.org » A » Adams Bryan » Here I Am 2
Знайти необхідні акорди

Adams Bryan - Here I Am 2  табулатура

Capo 1st fret! (so D = D#; but for tab 3 = 3 still, so 1 = open string)
Intro riff: (let ring where possible)

x3
E|------------6-----------3----------3--1----------|-----------3---------6-----|
B|--------4-----------4----------1---------4--3--1-|--------4---------4--------|
G|-----5----------5--------------------------------|-----1--------1------------|
D|----------------------------1--------------------|---------------------------|
A|-3------------------------------------1----------|---------------------------|
E|------------4------------------------------------|--1----------------------4-|

Verse 1:
D A
Here I am - this is me
G D
There's no where else on earth I'd rather be
G D
Here I am - it's just me and you
C A
And tonight we make our dreams come true

Chorus:
Bm G D A
It's a new world - it's a new start
Bm G D A
It's alive with the beating of young hearts
Bm G D A
It's a new day - it's a new plan
Em
I've been waiting for you
G
Here I am

Riff:

x3
E|-----------------------------------------------|----------------------------|
B|----------------11-------------8-8-------------|------------------------8-8-|
G|------------8--------------8----------10--8--7-|------------8-------8-------|
D|---10--10------------10------------------------|-10----10------10-----------|
A|-----------------------------------------------|-----8----------------------|
E|-----------------------------------------------|----------------------------|

Verse 2: same as verse 1
Here we are - we've just begun
And after all this time - our time has come
Ya here we are - still goin' strong
Right here in the place where we belong

(Chorus)

Solo:

D G
E|-11--13--11---11--13--11---|-11--13--11---11--13--11----|
B|-11--11--11---11--11--11---|-11--11--11---11--11--11----|
G|-x----x---x-----x---x----x-|-x----x---x-----x---x----x--|
D|-1----1---1----1---1----1--|-1----1---1----1---1----1---|
A|-x----x---x-----x---x----x-|-x----x---x-----x---x----x--|
E|-11--11--11---11--11--11---|-11--11--11---11--11--11----|

E|-11--13--11---11--13--11---|-11--13--11---11--13--11---|
B|-11--11--11---11--11--11---|-11--11--11---11--11--11---|
G|-1----1---1----1---1----1--|-1----1---1----1---1----1--|
D|-x----x---x-----x---x----x-|-x----x---x-----x---x----x-|
A|-11--11--11---11--11--11---|-11--11--11---11--11--11---|
E|---------------------------|---------------------------|

Bm G
E|--11--13--11---11--13--11---|-11--13--11---11--13--11---|
B|--11--11--11---11--11--11---|-11--11--11---11--11--11---|
G|--x----x---x-----x---x----x-|-x----x---x-----x---x----x-|
D|-10---10--10---10-10---10---|-10---10--10---10-10--10---|
A|----------------------------|---------------------------|
E|----------------------------|---------------------------|

E|-11--13--11---11--13--11-----|--11--13--11---11--13--11---|
B|-11--11--11---11--11--11-----|--11--11--11---11--11--11---|
G|-x----x---x-----x---x----x---|--x----x---x-----x---x----x-|
D|-1----1---1----1---1----1----|--1----1---1----1---1----1--|
A|-x----x---x-----x---x----x---|--x----x---x-----x---x----x-|
E|-11--11--11---11--11--11-----|--11--11--11---11--11--11---|

same chords as chorus:

E|-11-11-11----11----11/13-13-13-13-11-x-11-11-------|
B|-11-11----11----11-11/13-13-13-13-11-x-11-11-11---|
G|-------------------------------------------------8-|
D|---------------------------------------------------|
A|---------------------------------------------------|
E|---------------------------------------------------|

E|-x-x-8-8-8-6-6-8-8-86-6-6-6-6-6-6-|
B|-x-x-8-8-8-6-6-8-8-86-6-6-6-6-6-6-|
G|-----------------------------------|
D|-----------------------------------|
A|-----------------------------------|
E|-----------------------------------|

E|--------------------------------------------------------|
B|--------------------------------------------------------|
G|--8/10-10-10-10-10--8-8--------8--10/12-12-12-12--10-10-|
D|--8/10-10-10-10-10--8-8--8h10---------------------------|
A|--------------------------------------------------------|
E|--------------------------------------------------------|

E|------------------------------------------------|
B|---------------------8-8-10--8-8-10--8-10-8-10--|
G|-10--8-8---8-8-8---8-8-8----8-8--8-8------------|
D|------------------------------------------------|
A|------------------------------------------------|
E|------------------------------------------------|

(Verse 1)

(Chorus x2)

Outro: same chords as chorus

Here I am - next to you
And suddenly the world is all brand new
Here I am - where I'm gonna stay
Now there's nothin standin in our way
Here I am - this is me

-----------------------------
|  акорди, навчання, відео  |
|     http://akords.org     |
-----------------------------

 (голосів: 0)
   Інші пісні:
  • Here I Am
  • Ive Just Seen A Face
  • Spanish Eyes
  • Anthem Part Two
  • Across The Universe 6
  •  
    Шановний відвідувач, Ви зайшли на сайт як незареєстрований користувач. Ми рекомендуємо Вам реєструватися або зайти на сайт під своїм ім'ям.

    Додавання коментаря

    Ім'я:*
    E-Mail:*
    Коментар:
    Введіть два слова, показані на зображенні: *
     
      

    BLIBL-створити сайт безкоштовно