Зробити стартовою  |  Додати в вибране
 
Пошук по сайту:  
  логін: пароль:  
    Реєстрація на сайті   Нагадати пароль?    

Видавництво Симфонія | Книжкова фабрика

akords.org » A » Adams Bryan » Have You Ever Really Loved A Woman 2
Знайти необхідні акорди

Adams Bryan - Have You Ever Really Loved A Woman 2  табулатура

Freely
1 2 3 4 5 6 7 8 9 a b c etc. /3 /3
E|------------------------|------------------------|------------------------|
B|------------------------|------------------------|----------------------1-|
G|------------------0---23|2--------------------023|2--------0-----------0-3|
D|------------------------|1-----------------------|1-----1-----1-----------|
A|------------------------|1-----------------------|3--3--------------------|
E|------------------------|------------------------|------------------------|

/3 Slowly (49)
E|------2-----------------|------------------------|------2-----------2-----|
B|----3---3---------------|------8-----------4-----|----3---3-------3-------|
G|2---------2-------------|----8-----------5-------|--2-------2---2---------|
D|010---------------------|--8-----------5---------|0-----------0-----------|
A|------------------------|6-----------3-----------|------------------------|
E|------------------------|------------------------|------------------------|
To really..a woman... know her...

E|------------------------|------8--656865---------|--------------3-3-------|
B|------3-----1---------/3|1-----6-------------1-3/|4-----------3--1-1------|
G|----3-------------3--0--|------5-----------5-2---|3-----------------3--2--|
D|--3----------------3----|----57----------7---3-3/|5-5---------3--1--------|
A|1-------------------5---|--------------8---------|------------------5--3--|
E|------------------------|------------------------|------------------------|
thought... wings... find...

Guitar 2 Gsus G
v vvvvvvvvvvvvvvvvvvvvvv vvvvvvvvvvvvvvvvvvvvvvvv
E|------------------------|------------------------|------------------------|
B|------------------------|------------------------|----------8-7-5-3-1-0---|
G|------------------2-----|------------------------|----------9-7-5-4-2-0-0-|
D|5-----4-----5-----4-----|------------------------|----------------------2-|
A|5-----5-----5-----------|------5-----------5-----|------------------------|
E|------------------------|3-----------3-----------|3-----------------------|
arms... love... you...

D G
vvvvvvvvvvvvvvvvvvvvvvvv sim.
E|------------------------|------------------------|0-2-0--2---3-20-0-------|
B|----------353--8757~~~~~|--------0-1-1-3-5-5-8--7|-0-------01----3-575---|
G|2-------45--------------|--0-22--0-2-2-4-5-5-9---|-----0------------------|
D|0------0----------------|4-2-44------------x-----|--------0---------------|
A|------------------------|5----------------x------|------------------------|
E|------------------------|------------------------|------------------------|
wanted... you... one...

Am D Am D Am D
E|----3-2-----------------|----------a-------------|-------------------0----|
B|0-----0--0-00-311-0-----|--55----ac--d-ca--------|-888888-------------3---|
G|0-----0--0----422-0-3---|--00-------------cb97--|-9999997----555555-----|
D|--------------------2---|--55--------------------|-aaaaaa7----555555-----|
A|------------------------|0-0---------------------|------------------------|
E|------------------------|------------------------|------------------------|
she... last... tell...

G
vvvVvVvvvVvVvvvVvVv
E|--2-0--2-0----2-0-------|------3-------------3---|------------------------|
B|--3-3--333----3-3-------|3-----3--------4----4---|3-----------------------|
G|-----------4-4-4-----0--|2--0--0----------3---3--|2--------------0--2-----|
D|------------------------|--------0-----5----5----|4---------4-----2-0-----|
A|------------------------|--1------1/3----------0-|0--------5--5-----------|
E|3-----------3---------3-|------------------------|------------------2-----|
woman... woman... know...

-> / 2
E|------------------------|------------------------|------------------------|
B|------3-----1---------/3|1-----1-------------1-3-|4-----------7---5--3--2-|
G|----3-------2-----3-----|----2---2-----------2---|3-----3-----------------|
D|--3---------------5-----|--3-------3---------3---|5---5-------8-6655--3-|
A|1-----------------------|------------3-----------|------------------------|
E|------------------------|------------------------|------------------------|
breathe... feel... see...

Gsus G
-> v vVvVvvvVvVvvvVvVvvvVvV vvvVvVvvvVvVvvvVvVvvvVvV
E|------------------------|------------------------|------------------------|
B|------------------------|------------------------|----------8-7-5-3-1-0---|
G|------------------2-----|------------------------|----------9-7-5-4-2-0-0-|
D|5---754-----5-----4-----|------------------------|----------------------2-|
A|5-----5-----5-----------|------5-----------5-----|------------------------|
E|------------------------|3-----------3-----------|3-----------------------|
eyes... love... you...
Wanted...

D G
vvvVvVvvvVvVvvvVvVvvvVvV sim. /7 ->->
E|-------2-2--------------|------------------------|------------3-----------|
B|------------------------|--------0-1-1-3-5-5-8---|553530-----3-7555775----|
G|2------2-2--------------|--0-22--0-2-2-4-5-5-9---|---------45-------------|
D|0--------------------0--|4-2-44------------------|------------------------|
A|-------00-0-575799a97---|5-----------------------|------------------------|
E|------------------------|------------------------|-------3----------------|
you... one...

D Am D Am D
E|D----3-2-3--30----------|------------------------|-----------0------------|
B|--3------0--0-31-0-----|--7-5--7-5----7-5--7-5--|-888888----55555-5-----|
G|---------0----42-0-3---|--5-5--5-5----5-5--5-5--|-999999-7--55555-5-7---|
D|--------------------2---|--44--4-4----4-4----4---|-aaaaaa7-7-55555-5-----|
A|------------------------|------------------------|------------------------|
E|3-----------------------|------------------------|------------------------|
she... be... tell...

Bridge
G Eb F G
32 2
E|------------------------|------------------------|---------77-------------|
B|------------------------|---------88-------------|8-888-88888-8-88888-8888|
G|0474<-------------------|8-88--8--88-8-88-88-8888|7-777-7777777-77777-7777|
D|---754-45

-----------------------------
|  акорди, навчання, відео  |
|     http://akords.org     |
-----------------------------

 (голосів: 0)
   Інші пісні:
  • Have You Ever Really Loved A Woman
  • Dont Tell Me Its Over
  • history repeating
  • Evil Woman
  • Shes A Woman
  •  
    Шановний відвідувач, Ви зайшли на сайт як незареєстрований користувач. Ми рекомендуємо Вам реєструватися або зайти на сайт під своїм ім'ям.

    Додавання коментаря

    Ім'я:*
    E-Mail:*
    Коментар:
    Введіть два слова, показані на зображенні: *
     
      

    BLIBL-створити сайт безкоштовно