Зробити стартовою  |  Додати в вибране
 
Пошук по сайту:  
  логін: пароль:  
    Реєстрація на сайті   Нагадати пароль?    

Видавництво Симфонія | Книжкова фабрика

akords.org » A » Ac Dc » Danger
Знайти необхідні акорди

Ac Dc - Danger  табулатура

Watch the video of this song on the DVD "Family Jewels." You should be able to
see that I tabbed this exactly the way they play it in the video.

Tuning: Standard
Time Signature: 4/4

Starts with 8 measures of rest while Guitar 2 plays palm-muted 8th-notes on
the 5th fret of the 'A' string (slightly lifting left-hand finger each note
so as to play it shorter). Continue this until CHORUS (1st time).

VERSE 1
Don't talk to strangers
Keep away from the danger, yeah, yeah
Don't talk to strangers who smile
Keep away from the danger all the time, you just keep away

Guitar 1
PM------- PM--- PM
(E) S S E (E) Q E E E S S E E E S S E E
e|---------------------3-----2-------|-------3--3--2-----------2--2--3-------|
B|-------------3-------3-----3-------|-------3--3--3-----------3--3--3-------|
G|----------2----------0-----2-------|-------0--0--2-----------2--2--0-------|
D|-------0-------------0-----0---0---|---0---0--0--0---0---0---0--0--0---0---|
A|-----------------------------------|---------------------------------------|
E|---------------------3-------------|-------3--3--------------------3-------|
Don't talk to stran-gers

PM PM------- PM--- PM
E S S E E Q E E E S S E E E S S E E
e|-------------2-------3-----2-------|-------3--3--2-----------------3-------|
B|-------------3---3---3-----3-------|-------3--3--3--------------3--3-------|
G|----------2------2---0-----2-------|-------0--0--2-----------2--2--0-------|
D|---0---0---------0---0-----0---0---|---0---0--0--0---0---0---0--0--0---0---|
A|-----------------------------------|---------------------------------------|
E|---------------------3-------------|-------3--3--------------------3-------|
Keep a-way from the danger, yeah, yeah

PM PM------- PM--- PM
E S S E E Q E E E S S E E E S S E E
e|-------------3-------3-----2-------|-------3--3--2-----------------3-------|
B|----------3------3---3-----3-------|-------3--3--3--------------3--3-------|
G|-------2---------2---0-----2-------|-------0--0--2-----------2--2--0-------|
D|---0---0---------0---0-----0---0---|---0---0--0--0---0---0---0--0--0---0---|
A|-----------------------------------|---------------------------------------|
E|---------------------3-------------|-------3--3--------------------3-------|
Don't talk to stran-gers who smile

PM PM-------
E S S E E Q E E E S S E (E) H
e|-------------2-------3-----2-------|-------3--3--2-------------------------|
B|-------------3---3---3-----3-------|-------3--3--3-------------------------|
G|----------2------2---0-----2-------|-------0--0--2-------------------------|
D|---0---0---------0---0-----0---0---|---0---0--0--0-------(pick slide)------|
A|-----------------------------------|---------------------------------------|
E|---------------------3-------------|-------3--3----------------------------|
Keep away from the danger all the time You just keep away


CHORUS (1st time, without real CHORUS words)
Guitar 1
PH
Q (E) E E E E E S S Q E E E Q
e|---12(12)-----------------------------|-----------------------------------|
B|---15b17--------------------------8---|--8h10-10~~~----8---10--8---10~----|
G|-------------------6---7---6---7-------|-----------------------------------|
D|---------------------------------------|-----------------------------------|
A|---------------------------------------|-----------------------------------|
E|---------------------------------------|-----------------------------------|
| Guitar 2 | |
| S S S (S) (E) S S E S S E E | S S S (S) (E) E E E E (E) |
e|---------------------------------------|-----------------------------------|
B|---------------------------------------|-----------------------------------|
G|---------------------------------------|--2-2-2-------------2-------2------|
D|---14-14-14--------7-7-7---7-7-7-------|--2-2-2-------------2-------2------|
A|---14-14-14--------x---x---x---x-------|--0-0-0-------------0-------0------|
E|---12-12-12--------9---10--9---10--3b--|----------------3b------3b---------|
Ohhh...
(Guitar 2 repeat previous 2 measures for the rest of the CHORUS)

Guitar 1
Q (E) (E) (H) Q (E) (E) (H)
e|---12(12)-------------------------|---12(12)-----------------------------|
B|---15b17--------------------------|---15b17------------------------------|
G|-----------------------------------|---------------------------------------|
D|-----------------------------------|---------------------------------------|
A|-----------------------------------|---------------------------------------|
E|-----------------------------------|---------------------------------------|
Ohhh... Just keep a-way, yeah

Q (E) E E E E E S S Q E E E Q
e|---12(12)-------------------------|---------------------------------------|
B|---15b17--------------------------|---8h10-10~~~-8---10--8---10~----------|
G|--------------6---7---6---7---7----|---------------------------------------|
D|-----------------------------------|---------------------------------------|
A|-----------------------------------|---------------------------------------|
E|-----------------------------------|---------------------------------------|

Q (E) (E) (H) Q. (E) (H)
e|---12(12)-------------------------|---12(12)-----------------------------|
B|---15b17--------------------------|---15b17------------------------------|
G|-----------------------------------|---------------------------------------|
D|-----------------------------------|---------------------------------------|
A|-----------------------------------|---------------------------------------|
E|-----------------------------------|---------------------------------------|
Ohhh...

VERSE 2
Red lights are flash-in'
There's been a misunderstanding, yeah, yeah
I'm bruised and broke and bandaged
Through drinkin' all that brandy
I was under the table but I came back for more
Got to hit that bottle but my head hit the floor, we got

Guitar 1
PM------- PM--- PM
(E) S S E E Q E E E S S E E S S E E
e|-------------2-------3-----2-------|-------3--3--2-----------------3-------|
B|-----------------3---3-----3-------|-------3--3--3--------------3--3-------|
G|----------2------2---0-----2-------|-------0--0--2-----------2--2--0-------|
D|-------0---------0---0-----0---0---|---0---0--0--0---0---0---0--0--0---0---|
A|-----------------------------------|---------------------------------------|
E|---------------------3-------------|-------3--3--------------------3-------|
| Guitar 2 | |
| PM------------- PM------- PM--- PM |
| E E E E Q E E | E S S E E E S S E E |
e|---------------------3-----2-------|-------3--3--2-----------2--2--3-------|
B|---------------------3-----3-------|-------3--3--3-----------3--3--3-------|
G|---------------------0-----2-------|-------0--0--2-----------2--2--0-------|
D|---0---0-----0---0---0-----0---0---|---0---0--0--0---0---0---0--0--0---0---|
A|-----------------------------------|---------------------------------------|
E|---------------------3-------------|-------3--3--------------------3-------|
Red lights are flash-in' There's

Guitar 1
PM PM------- PM--- PM
E S S E E Q E E E S S E E E S S E E
e|-------------2-------3-----2-------|-------3--3--2-----------------3-------|
B|-----------------3---3-----3-------|-------3--3--3--------------3--3-------|
G|----------2------2---0-----2-------|-------0--0--2-----------2--2--0-------|
D|---0---0---------0---0-----0---0---|---0---0--0--0---0---0---0--0--0---0---|
A|-----------------------------------|---------------------------------------|
E|---------------------3-------------|-------3--3--------------------3-------|
| Guitar 2 | |
| PM PM PM------- PM--- PM |
| E S S E E Q E E | E S S E E E S S E E |
e|-------------2-------3-----2-------|-------3--3--2-----------2--2--3-------|
B|----------3----------3-----3-------|-------3--3--3-----------3--3--3-------|
G|-------2-------------0-----2-------|-------0--0--2-----------2--2--0-------|
D|---0-------------0---0-----0---0---|---0---0--0--0---0---0---0--0--0---0---|
A|-----------------------------------|---------------------------------------|
E|---------------------3-------------|-------3--3--------------------3-------|
been a mis - un- der stand-ing, yeah, yeah I'm

Guitar 1
PM PM------- PM--- PM
E S S E E Q E E E S S E E E S S E E
e|-------------2-------3-----2-------|-------3--3--2-----------------3-------|
B|----------3------3---3-----3-------|-------3--3--3--------------3--3-------|
G|-------2---------2---0-----2-------|-------0--0--2-----------2--2--0-------|
D|---0-------------0---0-----0---0---|---0---0--0--0---0---0---0--0--0---0---|
A|-----------------------------------|---------------------------------------|
E|---------------------3-------------|-------3--3--------------------3-------|
| Guitar 2 | |
| PM PM------- PM--- PM |
| E S S E E Q E E | E S S E E E S S E E |
e|-------------2-------3-----2-------|-------3--3--2-----------2--2--3-------|
B|----------3----------3-----3-------|-------3--3--3-----------3--3--3-------|
G|-------2---------0---0-----2-------|-------0--0--2-----------2--2--0-------|
D|---0---0---------0---0-----0---0---|---0---0--0--0---0---0---0--0--0---0---|
A|-----------------------------------|---------------------------------------|
E|---------------------3-------------|-------3--3--------------------3-------|
bruised and broke and bandaged Through

Guitar 1
PM PM------- PM--- PM
E S S E E Q E E E S S E E E S S S E.
e|-------------2-------3-----2-------|-------3--3--2-----------2--2--3--3----|
B|----------3------3---3-----3-------|-------3--3--3-----------3--3--3--3----|
G|-------2---------2---0-----2-------|-------0--0--2-----------2--2--0--0----|
D|---0---0---------0---0-----0---0---|---0---0--0--0---0---0---0--0--0--0----|
A|-----------------------------------|---------------------------------------|
E|---------------------3-------------|-------3--3--------------------3--3----|
| Guitar 2 | |
| PM PM------- PM--- |
| E S S E E Q E E | E S S E E E S S S E. |
e|-------------2-------3-----2-------|-------3--3--2-----------2--2--3--3----|
B|----------3--3-------3-----3-------|-------3--3--3-----------3--3--3--3----|
G|-------2-----2-------0-----2-------|-------0--0--2-----------2--2--0--0----|
D|---0---0---------0---0-----0---0---|---0---0--0--0---0---0---0--0--0--0----|
A|-----------------------------------|---------------------------------------|
E|---------------------3-------------|-------3--3--------------------3--3----|
Drinkin' all that bran- dy I was

Guitar 1
PM------- PM--- PM
H Q E E E S S E E E S S E E
e|-----------------------------------|---------------------------------------|
B|---2-----------------3-----2-------|-------3--3--2-----------2--2--3-------|
G|---2-----------------2-----2-------|-------2--2--2-----------2--2--2-------|
D|---2-----------------2h4---2-------|-------4--4--2-----------2--2--4-------|
A|---0-----------------0-----0---0---|---0---0--0--0---0---0---0--0--0---0---|
E|-----------------------------------|---------------------------------------|
| Guitar 2 | |
| PM------- PM--- PM |
| E. S E E Q E E | E S S E E E S S E E |
e|-----------------------------------|---------------------------------------|
B|---2-------2-2---2---3-----2-------|-------3--3--2-----------2--2--3-------|
G|---2-------2-2---2---2-----2-------|-------2--2--2-----------2--2--2-------|
D|---2-------2-2---2---2h4---2-------|-------4--4--2-----------2--2--4-------|
A|---0-------0-0---0---0-----0---0---|---0---0--0--0---0---0---0--0--0---0---|
E|-----------------------------------|---------------------------------------|
Un - der the table but I came back for more

Guitar 1
H Q Q (E) S S Q. S S E E
e|-----------------------------------|---------------------------------------|
B|---2-----------------3-----2-------|--(2)--3--3--2-----------2--2--3-------|
G|---2-----------------2-----2-------|--(2)--2--2--2-----------2--2--2-------|
D|---2-----------------2h4---2-------|--(2)--4--4--2-----------2--2--4-------|
A|---0-----------------0-----0-------|--(0)--0--0--0-----------0--0--0-------|
E|-----------------------------------|-----------------------------------0---|
| Guitar 2 | |
| Q E E Q Q | (E) S S Q. S S Q |
e|-----------------------------------|---------------------------------------|
B|---2---------2---2---3-----2-------|--(2)--3--3--2-----------2--2--3-------|
G|---2---------2---2---2-----2-------|--(2)--2--2--2-----------2--2--2-------|
D|---2---------2---2---2h4---2-------|--(2)--4--4--2-----------2--2--4-------|
A|---0---------0---0---0-----0-------|--(0)--0--0--0-----------0--0--0-------|
E|-----------------------------------|---------------------------------------|
Got to hit that bottle but my head hit the floor, we got

CHORUS (2nd time) - Guitar 2 the same as CHORUS (1st time)
Danger, danger, don't talk to strangers
Stranger, danger, don't you talk
Danger, danger, don't talk to strangers
Danger, danger, don't talk keep away

Guitar 1
S S E (E) E E E E E S S Q E E E E E
e|---7--7--7---------------------------|-------------------------------------|
B|---0--0--0-----------------------8---|---8h10-10-------8---10--8---10------|
G|---9--9--9-------6---7---6---7-------|---------------------------------9---|
D|---9--9--9---------------------------|-------------------------------------|
A|-------------------------------------|-------------------------------------|
E|-------------------------------------|-------------------------------------|
Dan - ger, Dan - ger, Don't talk to stran - gers
(Repeat previous 2 measures 4 times - on last time don't play last note
but slide down from the note on the 10th fret to the position needed
for the next verse)

VERSE 3 - Same as VERSE 2

Red lights still flashin'
People are still dancin' in my head
I'm done with thinkin', about what to do
Another bout of drinkin', just one before I'm through
I was just raisin' hell, I wasn't doin' no harm
The cops could not appreciate, my natural charm, I'm a

CHORUS - Same as CHORUS (2nd time) except for last measure below
Danger, danger, don't talk to strangers
Stranger, danger, don't you talk, don't talk
Danger, danger, don't talk to strangers
Danger, danger

Guitar 1
Q H.
e|---5-----5--(5)----------------------|
B|---8-----8-b-10----------------------|
G|-------------------------------------|
D|-------------------------------------|
A|-------------------------------------|
E|-------------------------------------|
| Guitar 2 |
| Q H. |
e|-------------------------------------|
B|-------------------------------------|
G|---0-----2---------------------------|
D|---0-----2---------------------------|
A|---x-----0---------------------------|
E|---3---------------------------------|

SOLO - Not quite perfect...
Guitar 1
PH---
Q (E) E E E Q Q (E) Q. (E) E Q
e|---5--(5)---|------2---2-------------------|------------------------------|
B|---8-b-10---|--------------3--/7b8~~-3~~~-|------6b8~~~~~~~---3---3~~~~-|
G|-------------|------------------------------|------------------------------|
D|-------------|------------------------------|------------------------------|
A|-------------|------------------------------|------------------------------|
E|-------------|------------------------------|------------------------------|
| Guitar 2 |
| (Q) E E E E Q E (E) | S (S) S S S(S) S(S) S S Q |
e|-------------|--2---2---2---2---3-----2-----|--2-----3-3-2----2----2-2-3---|
B|-------------|--3---3---3---3---3-----3-----|--3-----3-3-3----3----3-3-3---|
G|--(2)--------|--2---2---2---2---0-----2-----|--2-----0-0-2----2----2-2-0---|
D|--(2)--------|--0---0---0---0---0-----0-----|--0-----0-0-0----0----0-0-0---|
A|--(0)--------|------------------------------|------------------------------|
E|-------------|------------------3-----------|--------3-3---------------3---|
Don't talk to stran-gers

Guitar 1 3
H [E (E) E] Q (E) Q S S H
e|----------------------3--------------|-------------------------------------|
B|----------------6--------------------|--------8b10---8p6-------------------|
G|---6b7~~~------------------6b7~~~~---|--------------------7~~~~~~~~~~~~~---|
D|-------------------------------------|-------------------------------------|
A|-------------------------------------|-------------------------------------|
E|-------------------------------------|-------------------------------------|
| Guitar 2 | |
| H Q Q | (E) S S Q. S S Q |
e|----2------------------3------2------|--------3-3-2---------2--2--3--------|
B|----3------------------3------3------|--------3-3-3---------3--3--3--------|
G|----2------------------0------2------|--------0-0-2---------2--2--0--------|
D|----0------------------0------0------|--------0-0-0---------0--0--0--------|
A|-------------------------------------|-------------------------------------|
E|-----------------------3-------------|--------3-3-----------------3--------|

Guitar 1 3 3 3
Q Q Q (E) [S(S)S] (S) S [S S S][S S S] S S (Q.) E
e|-----------------------------------|---------------------------------------|
B|---13b15-13b15-pb15~(15)-pb15-13---|--pb15-13-10----10------------------20-|
G|-----------------------------------|-------------12----10------------------|
D|-----------------------------------|----------------------12-10h12~(12)~---|
A|-----------------------------------|---------------------------------------|
E|-----------------------------------|---------------------------------------|
| Guitar 2 | |
| H Q Q | (E) S S Q. S S Q |
e|----2------------------3------2----|-------3---3----2-----------2--2--3----|
B|----3------------------3------3----|-------3---3----3-----------3--3--3----|
G|----2------------------0------2----|-------0---0----2-----------2--2--0----|
D|----0------------------0------0----|-------0---0----0-----------0--0--0----|
A|-----------------------------------|---------------------------------------|
E|-----------------------3-----------|-------3---3----------------------3----|


PH 3 PH---------------------------- 3 -------
E E E E. S [S S S] Q (E) E Q [E E E] S E.
e|-------17-----------22------------20~~~|--(20)-17-15b17-b17-b17-b17-17-----|
B|---20------20-pb22~~-------20-22-------|-------------------------------17~|
G|------------------------21-------------|-----------------------------------|
D|---------------------------------------|-----------------------------------|
A|---------------------------------------|-----------------------------------|
E|---------------------------------------|-----------------------------------|
Guitar 2 continues by playing the last 2 measures of VERSE 2 twice

PH---
Q. E S E S Q (E) E E E S S E E E
e|---18b20~~~------------------------|---------------------------------------|
B|-----------15--13b15r13------------|---------------------------------------|
G|----------------------------14b17--|------14-12-11--/17-------------------|
D|-----------------------------------|---------------------------------------|
A|-----------------------------------|---------------------------------------|
E|-----------------------------------|---------------------0--3-b-5-r-3------|

CHORUS -Same as CHORUS (2nd time) except Guitar 1 plays these 2 measures first
and plays the other stuff starting with the last measure of CHORUS (2nd time)

Danger, danger, don't talk to strangers
Stranger, danger, don't you talk, don't talk
Danger, danger, don't talk to strangers
Danger, danger, don't talk, keep away
Danger, danger, don't talk to strangers
Stranger, danger, don't you talk, don't you talk
Danger, danger, don't talk to strangers
Danger, danger
Don't you go talkin' to no stranger in this town

Guitar 1
S S Q S S E S S E E S S Q E E E E E
e|-----------------------------3---|---3h5-5-----3---5---3---5---0-----------|
B|---------------------------------|-----------------------------------------|
G|---------------------------------|-----------------------------------------|
D|---2-2-2-----7-7-7---7-7-7-------|-----------------------------------------|
A|---2-2-2-----4-4-5---4-4-5-------|-----------------------------------------|
E|---0-0-0-------------------------|-----------------------------------------|

Start at last measure before CHORUS (2nd time) ends:

Guitar 1
S S Q E E E Q | W
e|-----------------------------------|---------------------------------------|
B|---8h10-10-------8---10--8---15b17-|--15b17~~~~---------------------------|
G|-----------------------------------|---------------------------------------|
D|-----------------------------------|---------------------------------------|
A|-----------------------------------|---------------------------------------|
E|-----------------------------------|---------------------------------------|

(E) E E E Q Q (H) (Q.) E
e|-------------------------------|-------------------------------------------|
B|-------------------17---12~~~~|--(12)-------------------------------------|
G|-------14--14--12--------------|--------------------------------------19---|
D|-------------------------------|-------------------------------------------|
A|-------------------------------|-------------------------------------------|
E|-------------------------------|-------------------------------------------|

E E E H (E) Q.. S Q Q.. S Q
e|-------------------------------|---15b17r15-12~~~---15b17r15-12~~~--------|
B|------17-----------------------|-------------------------------------------|
G|---19----19-19b21~~~~---------|-------------------------------------------|
D|-------------------------------|-------------------------------------------|
A|-------------------------------|-------------------------------------------|
E|-------------------------------|-------------------------------------------|

S S E S S Q. E S S E S S E S S Q E
e|-------12-12--14b15r14-12-------------|-----------------------------15b17-|
B|---/14---------------------15b17-15p12-|-15b17-15p12-15b17-15p12-15b17-----|
G|---------------------------------------|-----------------------------------|
D|---------------------------------------|-----------------------------------|
A|---------------------------------------|-----------------------------------|
E|---------------------------------------|-----------------------------------|

3
Q E E [E E E] E E (W)
e|---15~~-12-------------------------------|---------------------------------|
B|------------15--12-----------------------|---------------------------------|
G|--------------------14b16r14--12--14b16--|--(16)---------------------------|
D|-----------------------------------------|---------------------------------|
A|-----------------------------------------|---------------------------------|
E|-----------------------------------------|---------------------------------|
| Guitar 2 |
| E E Q H |
e|---------------------------------|
B|---------------------------------|
G|---2---2---------2---------------|
D|---2---2---------2---------------|
A|---0---0---------0---------------|
E|-----------3b--------------------|
Tempo slows down

Guitar 1
E E
e|--------------------|
B|---15b17--15b17----|
G|--------------------|
D|--------------------|
A|--------------------|
E|--------------------|
| Guitar 2 |
| S S E |
e|--------------------|
B|--------------------|
G|--------------------|
D|---2--2---2---------|
A|---2--2---2---------|
E|---0--0---0---------|


| b bend
| pb pre-bend (use previous fret note and bend to indicated fret pitch)
| / slide up
| slide down
| h hammer-on
| p pull-off
| ~ vibrato
| x mute note
| PM palm-mute
| PH pinch harmonic
| (#) Tied note (don't re-pick)

Rhythms:
| S = 16th note
| E = 8th note
| Q = Quarter note
| H = Half note
| W = Whole note
| ( ) = Rest
| 3 = Triplet

-----------------------------
|  акорди, навчання, відео  |
|     http://akords.org     |
-----------------------------

 (голосів: 2)
   Інші пісні:
  • Snowballed
  • In Spite Of All The Danger (solo)
  • In Spite Of All The Danger
  • Wheels Of Confusion
  • In Spite Of All The Danger 2
  •  
    Шановний відвідувач, Ви зайшли на сайт як незареєстрований користувач. Ми рекомендуємо Вам реєструватися або зайти на сайт під своїм ім'ям.

    Додавання коментаря

    Ім'я:*
    E-Mail:*
    Коментар:
    Введіть два слова, показані на зображенні: *
     
      

    BLIBL-створити сайт безкоштовно