Зробити стартовою  |  Додати в вибране
 
Пошук по сайту:  
  логін: пароль:  
    Реєстрація на сайті   Нагадати пароль?    
http://dolgov-stom.ru/ десна болит а зуб не болит.

Видавництво Симфонія | Книжкова фабрика

akords.org » A » Ac Dc » Caught With Your Pants Down
Знайти необхідні акорди

Ac Dc - Caught With Your Pants Down   табулатура

tabbed by stevie boy walls


Intro:

G1
P.M . . . . . . . . Intros end
|-------------------------------------------------| |--------------------------------|
|-------------------------------------------------| |-----3------3------2------------|
|-------------------------------------------------| |-----4------3------2------------|
|--------------------------------------7--6--5----| |-----------------------------2--|
|--7--------7--------7--------7--------7--6--5----|REPEAT |--2------2------2------2--2--2--|
|--4--0--0--5--0--0--6--0--0--7--0--0-------------| |--0------0------0------0--3--0--|
G2
|-------------------------------------------------| |--------------------------------|
|-------------------------------------------------| |--------------------------------|
|-------------------------------------------------| |--------------------------------|
|-----------------------------------------6--5----| |-----------------------------2--|
|--7--7--7--7--7--7--7--7--7--7--7--7--7--4--3----|REPEAT |-----5------5------4---0--2--2--|
|--4--0--0--5--0--0--6--0--0--7--0--0--5----------| |--0--7---0--6---0--5---0--3--0--|

Riff
|----------------------|------------------|----------------------|
|----------------------|------------------|----------------------|
|-------------2--------|------------------|-------------2--------|
|-------------2-----2--|------------------|----------2--2-----2--|
|----------2--0-----2--|------------------|----------2--0-----2--|
|----------0-----3--0--|------------------|----------0-----3--0--| after a few bars dont include
the blank bar
whip you... to-
|------------------|------------------|--------------------------|
|------------------|------------------|--------------------------|
|------------------|------------------|--------------------------|
|------------------|------------------|--------------------------|
|------------------|------------------|--2--2--2--3--3--3--4--4--|
|------------------|------------------|--3--3--3--3--3--3--3--3--|

night... out drivin'...
|--------------------------|--------------------------|----------------------
|-----3--3--3--3--3--3-----|--------------------------|----------------------
|-----0--0--0--0--0--0-----|--------------------------|----------------------
|-----0--0--0--0--0--0-----|--2--2--2--2--2--2--2--2--|--2--2--2--2--2--2--2-
|--4--------------------0--|--4--0--0--5--0--0--6--0--|--0--0--0--0--0--0--0-
|--3--3--3--3--3--3--3-----|--------------------------|----------------------

maybe I'll get beat up
--------------------------|---------------------------|----------------------|
--------------------------|---------------------------|----------------------|
--2--2--2--2--2--2--2--2--|--2--2--2--22--2--2--2--2--|--2--2--2--2--2--2--2-|
--2--2--2--2--2--2--2--2--|--2--2--2--22--2--2--2--2--|--2--2--2--2--2--2--2-|
--0--0--0--0--0--0--0--0--|--0--0--0--00--0--0--0--0--|--0--0--0--0--0--0--0-|
--------------------------|---------------------------|----------------------|


CHORUS
g1
|------------------|--------------------------|------------------------|
|------------------|--------------------------|------------------------|
|------------------|--4--3--2-----2--1--0-----|------------------------|
|------------------|--4--3--2-----2--1--0-----|----2--2--2--2----2--0--|
|------------------|--------------------------|----2--2--2--2----2--0--|
|------------------|-----------0-----------0--|----0--0--0--0----0--0--|
g2
|------------------|--------------------------|------------------------|
|------------------|--------------------------|------------------------|
|------------------|--------------------------|----1--------1----1-----|
|------------------|--9--8--7-----7--6--5-----|----2--------2----0--0--|
|------------------|--9--8--7-----7--6--5-----|----2--2--2--2----0--0--|
|------------------|--7--6--5--0--5--4--3--0--|-------0--0-------0--0--|
end the chorus with the intros end

Bridge
E|-------------------------|----------------------------|--------------------------------------|
B|-------------------------|----------------------------|--------------------------------------|
G|--4--4--4---4--4---4--4--|---2--2--2--2--2---2--2--2--|--2-2-2-2-2-2-2-2-2-2-2-2-2-2-2-2-2-2-|
D|--4--4--4---4--4---4--4--|---2--2--2--2--2---2--2--2--|--2-2-2-2-2-2-2-2-2-2-2-2-2-2-2-2-2-2-|
A|--2--2--2---2--2---2--2--|---0--0--0--0--0---0--0--0--|--0-0-0-0-4-0-0-5-0-0-6-0-0-0-0-0-0-0-|
E|-------------------------|----------------------------|--------------------------------------|

E|-----------------------------------------|---------------------------------------------------|
B|-----------------------------------------|------------------------------3------3-----2-------|
G|-4--4--4--4--4--4--4--4--4-4-4-4-4-4-4-4-|------------------------------4------3-----2----0--|
D|-4--4--4--4--4--4--4--4--4-4-4-4-4-4-4-4-|--------------------------2---------------------0-2|
A|-2--2--2--2--2--2--2--2--2-2-2-2-2-2-2-2-|--0-----------------------2-------0------0----0-=-2|
E|-----------------------------------------|--0--7--6--5--0--5--4--3--0-------0------0----0---0|

solo tremelo
E|-----------------------------------------------|=|-------------------------------------------|
B|-----------------------------------------------|=|-------------------------------------------|
G|--2b-r-^-0---------b-9---7------------------|=|--------------------5-----------------7b--7b
D|-----------2~~~~----------9---7b-r-------------|=|-----------7~~~--x-----7--7--7--7--x-------|
A|------------------------------------10-7--7~~~-|7|---7-0--x----------------------------------|
E|-----------------------------------------------|=|-------------------------------------------|
Ryth
|------------------------------------| |-------------------------------|
|------8--------8--------------------| |-----3------3------2-----------|
|------9--------8-----7--------5---2-| |-----4------3------2-----------|
|---------------------7--------5---2-| |-------------------------------|
|--0------x--0-----0--5--x--0--3---0-| |----------------------2--2--2--|
|------------------------------------| x2 |--0------0------0-----0--3--0--|

E|------------5--------------------------------------------------------------------------------|
B|---------------5-5b--8b--8--5----------------------------------------------------------------|
G|--7b~~~~~~~--------------------8-7-5---7--5-----------------------0-0-0-0-0-0-0-0-0----------|
D|-------------------------------------7-------7--7~~~~~-5-----5----0-0-0-0-0-0-0-0-0----------|
A|------------------------------------------------------------------------------------5--x--7--|
E|----------------------------------------------------------0----------------------------------|

E|---------------------------------------------------------------------------------------------|
B|----------------------15-15--12~~~~~-12~~~~~~~~~~~~~~~~~~~~~~~~~~~~~~~~~~~~~~~~~~~~~-12-----|
G|-x--0--0--0---------------------------------------------------------------------------------|
D|-----0--0--0---------------------------------------------------------------------------------|
A|---------------7~~~~-------------------------------------------------------------------------|
E|---------------0--------------------------------------------------------------------------0-0|

E|------------------------------------------------------------------------------------------7--|
B|-15b---15b--15b--15b--15b--15b--15b--------10b-10-8---8--------------------------------7---7|
G|-------------------------------------------x---------9---9-----------------------------------|
D|------------------------------------------x----------------9-7-5-----------------------------|
A|---------------------------------------x-------------------------7-5-3-x---------------------|
E|---------------------------------------x---------------------------------5-5-3-3-5~~~--x-----|
same thing .........
E|----------7----------7-----------------------------------------------------------------------|
B|-10~~~~~----10-7---7---10-7---7--------------10~~---x--9~~--x10-----------------------------|
G|-----------------9----------9---7------------11~~~--x--9~~~-x10b--b---b---b---b--b----------|
D|----------------------------------9~~~~~-----------------------------------------------------|
A|----------------------------------------x-x--------------------------------------------------|
E|----------------------------------------x-x--------------------------------------------------|

BOTH GUITARS
E|-------------------------------------------------------------------------|
B|-------------------------------------------------------------------------|
G|-------------------------------------------------------------------------|
D|-----------------------------------------------------------------------2-|
A|-----------------------------------------------------------------------2-|
E|--7--6--5--5--4--3/7--5--5--4--3--7--6--5--0--5--4--3--0--3--2--1--0---0-|

Outro
E|--------------------17----17--17-17-17-17---------------------------------------------------|
B|17~~~-15-------17b-----18b-17----------------3--3--3--3--3--3--2--2-----------3--3--3--3--3--3
G|---------16~~~-------------------------------4--4--4--3--3--3--2--2--0--------4--4--4--3--3--3
D|---------------------------------------------------------------------0---2-------------------|
A|-----------------------------------------------0-------------------------2-------------------|
E|---------------------------------------------------------------------3---0-------------------|

E|---------------------------| |----------------------------12-------12-----------------------|
B|--2--2--2------------------| |--------14-------------15b-----15b-------15b-15b-15b~~~15b-r--|
G|--2--2--2--------2---------| |-----12-14--12-----14b-15-------------------------------------|
D|-----------2--2--2--2--2---| |--14-----------14---------------------------------------------|
A|-----------2--2--0--2--2---| |--------------------------------------------------------------|
E|-----------0--3-----3--0---| |--------------------------------------------------------------|

E|----------12-----------12----------12--------------------------------------------------------|
B|-15b-r-12----15^12-------15^12--------15--------------15b------------15-15b-12--15b--12-15-12|
G|-------------------14b---------14b-------12^14^12-14b-----12----12---------12---------------|
D|-------------------------------------------------------------14------------------------------|
A|---------------------------------------------------------------------------------------------|
E|---------------------------------------------------------------------------------------------|

E|---------------------------------------------------------------------------------------------|
B|------------------3-------3-------2-------3-------3-------2-------3------3--15~~~~~~~~~~~~~~~|
G|-x-14-12----------4-------3-------2-------4-------3-------2-------4------3-------------------|
D|-x-------14~~--------------------------------------------------------------------------------|
A|---------------------------------------------------------------------------------------------|
E|---------------0-------0-------0-------0-------0------0-------0-------0----------------------|
tremelo (fair bit)
E|------0-----------0-----x---------------|==|--------------------------------------0----------|
B|---------15~~~~~----15----15x----15--15-|15|-----5-----5----5-------3^5~-3b-3------3^0------|
G|----------------------------------------|==|-----7b----7b---7b----------------2b-------2b-r-|
D|--0---------------------------0---------|==|------------------------------------------------x|
A|----------------------------------------|==|-------------------------------------------------|
E|----------------------------------------|==|-------------------------------------------------|

E|------------------------||
B|------------------------||
G|-----------0------------||
D|--------------2--2--2---||
A|--5b--x------2--2--2---||
E|--------------0--0--0---||

-----------------------------
|  акорди, навчання, відео  |
|     http://akords.org     |
-----------------------------

 (голосів: 1)
   Інші пісні:
  • Sweet Leaf
  • Shake A Leg
  • What Went Wrong
  • You Wont Change Me
  • The Ballad Of Chasey Lain
  •  
    Шановний відвідувач, Ви зайшли на сайт як незареєстрований користувач. Ми рекомендуємо Вам реєструватися або зайти на сайт під своїм ім'ям.

    Додавання коментаря

    Ім'я:*
    E-Mail:*
    Коментар:
    Введіть два слова, показані на зображенні: *
     
      

    BLIBL-створити сайт безкоштовно