Зробити стартовою  |  Додати в вибране
 
Пошук по сайту:  
  логін: пароль:  
    Реєстрація на сайті   Нагадати пароль?    

Видавництво Симфонія | Книжкова фабрика

akords.org » A » Ac Dc » Breaking The Rules
Знайти необхідні акорди

Ac Dc - Breaking The Rules  табулатура

#----------------------------------PLEASE NOTE---------------------------------#
#This file is the author's own work and represents their interpretation of the #
#song. You may only use this file for private study, scholarship, or research. #
#------------------------------------------------------------------------------##

BREAKING THE RULES
As recorded by AC/DC
(From the 1981 Album FOR THOSE ABOUT TO ROCK; WE SALUTE)

Words and Music by Angus Young, Malcolm Young, and Brian Johnson
Transcribed by Ibanez87

G/B Bb5 A/C# C5
x 2 5 x x x x 1 3 3 x x x 4 7 x x x x 3 5 5 x x

Gtr I (E A D G B E) - 'Malcolm'
Gtr II (E A D G B E) - 'Angus'
Gtr III (E A D G B E) - 'Angus2'

Q=60
A D/A A D/A A G5
4/4
Gtr I
S E. +H. S E. +H. S E. +H. S E. +H Q
|---------------|---------------|---------------|-------------3--|
|-2-3--(3)------|-3-2--(2)------|-2-3--(3)------|-3-2--(2)----3--|
|-2-2--(2)------|-2-2--(2)------|-2-2--(2)------|-2-2--(2)----0--|
|-2-4--(4)------|-4-2--(2)------|-2-4--(4)------|-4-2--(2)----0--|
|-0-0--(0)------|-0-0--(0)------|-0-0--(0)------|-0-0--(0)-------|
|---------------|---------------|---------------|-------------3--|


A D/A A
S S S S S S S S S S S S S S E S E. +Q Q Q
|--------------------------------------------------------|--------------------------------|
|---------2--3-----3-----3-----3-----3-----3-------------|---3--2---(2)-------------------|
|---------2--2-----2-----2-----2-----2-----2-------------|---2--2---(2)-------------------|
|---------2--4-----4-----4-----4-----4-----4-------------|---4--2---(2)--2--2-------------|
|---------0--0-0-0-0-0-0-0-0-0-0-0---0---0-0-------------|---0--0---(0)--0--0-------------|
|--------------------------------------------------------|--------------------------------|
|
| Gtr III
| ~~~~~~~~~~~~~~~~~~~~~~~~~~~~~~ ~~~~
| a +H. +S S S a +S +Q +H S E +S
|--------------------------------------------------------|--------------------------------|
|---------------------------------------10---12b14==(12)-|-(12)----(12)-------15b17==(15)-|
|-12b14-(12)-----------------------(12)------------------|--------------------------------|
|--------------------------------------------------------|--------------------------------|
|--------------------------------------------------------|--------------------------------|
|--------------------------------------------------------|--------------------------------|


D/A
S E. Q S S E Q
|-----------------------------------------------------------|
|---2--3------3----------3---3---3--------------3-----------|
|---2--2------2----------2---2---2--------------2-----------|
|---2--4------4----------4---4---4--------------4-----------|
|---0--0------0----------0---0---0--------------0-----------|
|-----------------------------------------------------------|
|
| ~~~~~~
| +E E E. S +S s +T T S +E S S
|-----------------------------------------------------------|
|-(15)----13----------------17-----------------------15b17--|
|------------14--16b18-(16)----(16)pb18r16-14-(14)----------|
|-----------------------------------------------------------|
|-----------------------------------------------------------|
|-----------------------------------------------------------|


A G5 Dadd11/F# E5
S E. +Q S S S S S S E
|-----------------------------------------3----3---------3-------3-------||
|---3--2-----------------(2)--------------3--3-----------3----3----------||
|---2--2-----------------(2)--------------0--------------2---------------||
|---4--2-----------------(2)--------------0--------------0-----------2---||
|---0--0-----------------(0)-----------------------------------------2---||
|-----------------------------------------3--------------2-----------0---||
|
| ~~~~~~~~ ~~~~~~~~ ~~~~~~~~
| +E S a +S +E a +E +E. a +S +E +E
|---------15-------------------------------------------------------------||
|-(15)-------15b17-(15)-(15)-15b17-(15)-(15)-----15b17-(15)-(15)---(15)-||
|------------------------------------------------------------------------||
|------------------------------------------------------------------------||
|------------------------------------------------------------------------||
|------------------------------------------------------------------------||


verse
A/C# C5 C7
S S S S Q S S S S Q
|---------------------------------|
|---------------------------------|
|-----------------5-5-5-----------|
|-7-7-7-----------5-5-5-----------|
|-4-4-4-----------3-3-3-----------|
|---------------------------------|
|
| Gtr II
| S S S S S S S S S S S S +E S S
|-5-5-5-----6-5---3-3-3-6-(6)-5---|
|-5-5-5-----6-5---5-5-5-5-(5)-5---|
|---------------------------------|
|---------------------------------|
|-4-4-4-----4-4-3-3-3-3-3-----3---|
|-------------------------------0-|


G/B Bb5 Bb7 A/C# C5 C7
S S S S Q S S S S Q S S S S Q S S S S Q
|---------------------------------|---------------------------------|
|---------------------------------|---------------------------------|
|-----------------3-3-3-----------|-----------------5-5-5-----------|
|-5-5-5-----------3-3-3-----------|-7-7-7-----------5-5-5-----------|
|-2-2-2-----------1-1-1-----------|-4-4-4-----------3-3-3-----------|
|---------------------------------|---------------------------------|
|
| S S S S S S S S S S S S +E S S S S S S S S S S S S S S +E S S
|-3-3-3-----4-3---1-1-1-4-(4)-3---|-5-5-5-----6-5---3-3-3-6-(6)-5---|
|-3-3-3-----4-3---3-3-3-3-(3)-3---|-5-5-5-----6-5---5-5-5-5-(5)-5---|
|---------------------------------|---------------------------------|
|---------------------------------|---------------------------------|
|-2-2-2-----2-2-1-1-1-1-1-(1)-1-0-|-4-4-4-----4-4-3-3-3-3-----------|
|---------------------------------|-------------------------------0-|


G/B Bb5 Bb7 A/C# C5 C7
Gtr I
S S S S Q S S S S Q S S S S Q S S S S Q
| | | | | | | | | | | |
/ / / / / / / / / / / /

Gtr II
S S S S S S S S S S S S +E S S S S S S S S S S S S S S +E S S
|-3-3-3-----4-3---1-1-1-4-(4)-3---|-5-5-5-----6-5---3-3-3-6-(6)-5---|
|-3-3-3-----4-3---3-3-3-3-(3)-3---|-5-5-5-----6-5---5-5-5-5-(5)-5---|
|---------------------------------|---------------------------------|
|---------------------------------|---------------------------------|
|-2-2-2-----2-2-1-1-1-1-1-(1)-1---|-4-4-4-----4-4-3-3-3-3-3---------|
|-------------------------------0-|-------------------------------0-|


G/B Bb5 Bb7 A/C# C5 C7
S S S S Q S S S S Q S S S S Q S S S S Q
| | | | | | | | | | | |
/ / / / / / / / / / / /

S S S S S S S S S S S S +E S S S S S S S S S S S S S S +E S S
|-3-3-3-----4-3---1-1-1-4-(4)-3---|-5-5-5-----6-5---3-3-3-6-(6)-5---|
|-3-3-3-----4-3---3-3-3-3-(3)-3---|-5-5-5-----6-5---5-5-5-5-(5)-5---|
|---------------------------------|---------------------------------|
|---------------------------------|---------------------------------|
|-2-2-2-----2-2-1-1-1-1-1-(1)-1-0-|-4-4-4-----4-4-3-3-3-3-----------|
|---------------------------------|-------------------------------0-|


G/B Bb5 Bbsus4
2/4 4/4
Gtr I
S S S S Q E S S S S S S S S S S S S S S
|-----------------|---------------------------------|
|-----------------|---------------------------------|
|-----------------|-3---3-----3-3-3-3-3-3-3-3-3-3-3-|
|-5-5-5-----------|-3---3-----3-3-3-3-3-3-3-3-3-3-3-|
|-2-2-2-----------|-1-1-1--1--1-1-1-1-1-1-1-1-1-1-1-|
|-----------------|---------------------------------|
|
| Gtr II
| S S S S S S S S E S S +S S E S E S Q
|-3-3-3-----4-3---|---------------------------------|
|-3-3-3-----4-3---|-3---4-(4)---4-----4-----4-------|
|-----------------|-3---3-(3)---3-----3-----3-------|
|-----------------|---------------------------------|
|-2-2-2-----2-2-1-|-1-1-1-(1)-1-1---1-1---1-1-------|
|-----------------|---------------------------------|


Bb5 Bb
S S S S S S S S S S S S S S S S
|-----------------------------------||
|-----------------------------------||
|-3-3-3-3-3-3-3-3-3-3-3-3-3-3-3-3---||
|-3-3-3-3-3-3-3-3-3-3-3-3-3-3-3-3---||
|-1-1-1-1-1-1-1-1-1-1-1-1-1-1-1-1---||
|-----------------------------------||
|
| S S S S S S S S S S S S S S S S
|-----------------------------------||
|-------------------3-3-3-3-3-3-3---||
|-3-3-3-3-3-3-3-3-3-3-3-3-3-3-3-3---||
|-3-3-3-3-3-3-3-3-3-3-3-3-3-3-3-3---||
|-1-1-1-1-1-1-1-1-1-1-1-1-1-1-1-1---||
|-----------------------------------||


chorus
A D/A A G5 Dadd11/F# A D/A
Gtrs I, II
S E. +H. S E. +Q S S S S S S E S E. +H.
|---------------|-----------3---3-3---3---|-------------|
|-2-3--(3)------|-3-2--(2)--3-3---3-3-----|-2-3--(3)----|
|-2-2--(2)------|-2-2--(2)--0-----2-------|-2-2--(2)----|
|-2-4--(4)------|-4-2--(2)--0-----0-------|-2-4--(4)----|
|-0-0--(0)------|-0-0--(0)----------------|-0-0--(0)----|
|---------------|-----------3-----2-----0-|-------------|


2nd verse
A G5 Dadd11E5# A/C# C5 C7
Gtr I
PM
S E. +Q S S S S S S E S S S S Q S S S S E S S
|-----------3---3-3---3---||---------------------------------|
|-3-2--(2)--3-3---3-3-----||---------------------------------|
|-2-2--(2)--0-----2-------||-----------------5-5-5-----------|
|-4-2--(2)--0-----0-------||-7-7-7-----------5-5-5-----------|
|-0-0--(0)----------------||-4-4-4-----------3-3-3-------x---|
|-----------3-----2-----0-||-------------------------------0-|
|
| Gtr II
| W S S S S S S S S S S S S +E S S
|-------------------------||-5-5-5-----6-5---3-3-3-6-(6)-5---|
|-------------------------||-5-5-5-----6-5---5-5-5-5-(5)-5---|
|-------------------------||---------------------------------|
|-------------------------||---------------------------------|
|-------------------------||-4-4-4-----4-4-3-3-3-3-3-----3---|
|-------------------------||-------------------------------0-|


G/B E Bb5 Bb7 E A/C# C5 C7 E
Gtr I
S S S S E S S S S S S E S S S S S S E S S S S S S E S S
| | | | | | | | | | | | | | | | | | | | |
/ / / o / / / / / x o / / / x x / / / x o

Gtr II
S S S S S S S S S S S S +E S S S S S S S S S S S S S S +E S S
|-3-3-3-----4-3---1-1-1-4-(4)-3---|-5-5-5-----6-5---3-3-3-6-(6)-5---|
|-3-3-3-----4-3---3-3-3-3-(3)-3---|-5-5-5-----6-5---5-5-5-5-(5)-5---|
|---------------------------------|---------------------------------|
|---------------------------------|---------------------------------|
|-2-2-2-----2-2-1-1-1-1-1-(1)-1-0-|-4-4-4-----4-4-3-3-3-3-----------|
|---------------------------------|-------------------------------0-|


G/B Bb5 Bb7 E A/C# C5 C7 E
S S S S E E S S S S E S S S S S S E S S S S S S E S S
| | | | | | | | | | | | | | | | | | | | | |
/ / / x / / / x x o / / / x x x / / / x x o

S S S S S S S S S S S S +E S S S S S S S S S S S S S S +E S S
|-3-3-3-----4-3---1-1-1-4-(4)-3---|-5-5-5-----6-5---3-3-3-6-(6)-5---|
|-3-3-3-----4-3---3-3-3-3-(3)-3---|-5-5-5-----6-5---5-5-5-5-(5)-5---|
|---------------------------------|---------------------------------|
|---------------------------------|---------------------------------|
|-2-2-2-----2-2-1-1-1-1-1-(1)-1---|-4-4-4-----4-4-3-3-3-3-3---------|
|-------------------------------0-|-------------------------------0-|


G/B Bb5 Bb7 E A/C# C5 C7
S S S S E S S S S S S S S S S S S S S E S S S S S S S S S S
| | | | | | | | | | | | | | | | | | | | | | | |
/ / / x x / / / x x x o / / / x x / / / x x x x

S S S S S S S S S S S S +E S S S S S S S S S S S S S S +E S S
|-3-3-3-----4-3---1-1-1-4-(4)---3---|-5-5-5-----6-5---3-3-3-6-(6)---5----|
|-3-3-3-----4-3---3-3-3-3-(3)---3---|-5-5-5-----6-5---5-5-5-5-(5)---5----|
|-----------------------------------|------------------------------------|
|-----------------------------------|------------------------------------|
|-2-2-2-----2-2-1-1-1-1-1-(1)---1-0-|-4-4-4-----4-4-3-3-3-3--------------|
|-----------------------------------|---------------------------------0--|


G/B Bb5 Bbsus4
2/4 4/4
Gtr I
PM|
S S S S S S S S E S S S S S S S S S S S S S S
|-----------------|---------------------------------|
|-----------------|---------------------------------|
|-----------------|-3---3-----3-3-3-3-3-3-3-3-3-3-3-|
|-5-5-5-----------|-3---3-----3-3-3-3-3-3-3-3-3-3-3-|
|-2-2-2---x-x-----|-1-1-1--1--1-1-1-1-1-1-1-1-1-1-1-|
|-------------0-0-|---------------------------------|
|
| Gtr II
| S S S S S S S S E S S +S S E S E S Q
|-3-3-3-----4-3---|---------------------------------|
|-3-3-3-----4-3---|-3---4-(4)---4-----4-----4-------|
|-----------------|-3---3-(3)---3-----3-----3-------|
|-----------------|---------------------------------|
|-2-2-2-----2-2-1-|-1-1-1-(1)-1-1---1-1---1-1-------|
|-----------------|---------------------------------|


Bb5 Bb
S S S S S S S S S S S S S S S S
|-----------------------------------||
|-----------------------------------||
|-3-3-3-3-3-3-3-3-3-3-3-3-3-3-3-3---||
|-3-3-3-3-3-3-3-3-3-3-3-3-3-3-3-3---||
|-1-1-1-1-1-1-1-1-1-1-1-1-1-1-1-1---||
|-----------------------------------||
|
| S S S S S S S S S S S S S S S S
|-----------------------------------||
|-------------------3-3-3-3-3-3-3---||
|-3-3-3-3-3-3-3-3-3-3-3-3-3-3-3-3---||
|-3-3-3-3-3-3-3-3-3-3-3-3-3-3-3-3---||
|-1-1-1-1-1-1-1-1-1-1-1-1-1-1-1-1---||
|-----------------------------------||


A D/A A G5 Dadd11/F#
Gtrs I, II
S E. +H. S E. +Q S S S S S S E
|---------------|-----------3---3-3---3---|
|-2-3--(3)------|-3-2--(2)--3-3---3-3-----|
|-2-2--(2)------|-2-2--(2)--0-----2-------|
|-2-4--(4)------|-4-2--(2)--0-----0-------|
|-0-0--(0)------|-0-0--(0)----------------|
|---------------|-----------3-----2-----0-|


A D/A A G5 Dadd11/F#
S E. +H. S E. +Q S S S S S S E
|---------------|-----------3---3-3---3---||
|-2-3--(3)------|-3-2--(2)--3-3---3-3-----||
|-2-2--(2)------|-2-2--(2)--0-----2-------||
|-2-4--(4)------|-4-2--(2)--0-----0-------||
|-0-0--(0)------|-0-0--(0)----------------||
|---------------|-----------3-----2-----0-||


solo
A/C# C5 E
Gtr I
S S S S E S S S S S S E S S
| | | | | | | | | | | |
/ / / x x x / / / x x o

Gtr III
~~~ ~~
S S E S S S a +S +E S T S. +S S S
|------------------------------------------------------|
|------------------------------------------------------|
|--------2--------2-4b5==(4)-(4)-----2--4p2----(2)-----|
|-------------2-4----------------------------------4---|
|--3h=4------------------------------------------------|
|------------------------------------------------------|
|
| Gtr II
| S S E Q S S E Q
|------------------------------------------------------|
|-10-10-10-------------------8---8--8----------------|
|--9--9--9-------------------9---9--9----------------|
|-11-11-11------------------10--10-10----------------|
|-12-12-12------------------10--10-10----------------|
|--9--9--9-------------------8---8--8----------------|


G/B Bb5 E
S S S S E S S S S S S S S S S
| | | | | | | | | | | |
/ / / x x / / / x x x o

PM-| ~~~~~~
S a +S S S E E a +S S S a +T T +Q
|------------------------------------------------------------|
|------------------------6b8-(6)-5-6-------------------------|
|----4b6-(4)--2-----------------------5b7-(5)pb7r5-(5)-------|
|----------------2-5-----------------------------------------|
|------------------------------------------------------------|
|------------------------------------------------------------|
|
| S S E Q S S E Q
|------------------------------------------------------------|
|--8------8---8--------------6--6-6------------------------|
|--7------7---7--------------7--7-7------------------------|
|--9------9---9--------------8--8-8------------------------|
|-10-----10--10--------------8--8-8------------------------|
|--7------7---7--------------6--6-6------------------------|


A/C# C5 E
S S S S E S S S S S S S S S S
| | | | | | | | | | | |
/ / / x x / / / x x x o

~
S S S S E S a +S +S S T T T T S S S S
|------------------------------5-------------------------|
|---------------------------------------------7-5---8b10-|
|-----5--6------7-7b9-(7)-(7)----(7)pb9r7-5---7-5--------|
|-----------7-7-----------------------------7-----7------|
|--------------------------------------------------------|
|--------------------------------------------------------|
|
| S S E Q S S E Q
|--------------------------------------------------------|
|-10-10-10----------------8---8--8---------------------|
|--9--9--9----------------9---9--9---------------------|
|-11-11-11---------------10--10-10---------------------|
|-12-12-12---------------10--10-10---------------------|
|--9--9--9----------------8---8--8---------------------|


G/B
2/4
S S S S Q
| | |
/ / /

~~~
+E. S S a +E T T
|-------------------------------|
|-(8)-----5-8-------------------|
|-------------7b8-(7)pb8r==7p5--|
|-------------------------------|
|-------------------------------|
|-------------------------------|
|
| S S S S S S S S
|--3--3-3----------4-----3------|
|--3--3-3----------4-----3------|
|-------------------------------|
|-------------------------------|
|--2--2-2----------2-----2-1----|
|-------------------------------|


Bb5 Bbsus4
4/4
Gtr I
E S S S S S S S S S S S S S S
|---------------------------------------------------------|
|---------------------------------------------------------|
|-------3----3-----------3--3--3---3---3---3---3--3-3-3-3-|
|-------3----3-----------3--3--3---3---3---3---3--3-3-3-3-|
|-------1--1-1--1--------1--1--1---1---1---1---1--1-1-1-1-|
|---------------------------------------------------------|
|
| Gtr III
| ~~~
| a +Q S a +E S S S S S S S S S
|---------------6-----------------------------------------|
|-9b11-(9)---------------------9---9---9---9---9----------|
|------------------8b10-(8)---(8)-(8)-(8)-(8)-(8)---------|
|-------------------------------------------------8---6-6-|
|---------------------------------------------------8-----|
|---------------------------------------------------------|
|
| Gtr II
| E S S +S S E S E S Q
|---------------------------------------------------------|
|-------3----4-(4)----------4----------4----------4-------|
|-------3----3-(3)----------3----------3----------3-------|
|---------------------------------------------------------|
|-------1--1-1-(1)-------1--1------1---1-------1--1-------|
|---------------------------------------------------------|


Bb5 Bb
S S S S S S S S S S S S S S S S
|--------------------------------------------------------------|
|--------------------------------------------------------------|
|-------3--3-3-3-3-3--3-3-------3---3---3---3--------3---3-3-3-|
|-------3--3-3-3-3-3--3-3-------3---3---3---3--------3---3-3-3-|
|-------1--1-1-1-1-1--1-1-------1---1---1---1--------1---1-1-1-|
|--------------------------------------------------------------|
|
| a +E. S S E. a S S S S a Q
|--------------------------------------------------------------|
|--------------9---9------------9---9---9---9--------9--------|
|-8b10-(8)----------------8b10-(8)-(8)-(8)-(8)-8b10-(8)-------|
|--------------------------------------------------------------|
|--------------------------------------------------------------|
|--------------------------------------------------------------|
|
| S S S S S S S S S S S S S S S S
|--------------------------------------------------------------|
|-----------------------------------3---3---3--------3---3-3-3-|
|-------3--3-3-3-3-3--3-3-------3---3---3---3--------3---3-3-3-|
|-------3--3-3-3-3-3--3-3-------3---3---3---3--------3---3-3-3-|
|-------1--1-1-1-1-1--1-1-------1---1---1---1--------1---1-1-1-|
|--------------------------------------------------------------|


A D/A
S E. +E E S E S E E
|---------------------------------------------------|
|-------2--3--(3)--3----------3------------3--3-----|
|-------2--2--(2)--2----------2------------2--2-----|
|-------2--4--(4)--4----------4------------4--4-----|
|-------0--0--(0)--0------0---0--------0---0--0-----|
|---------------------------------------------------|
|
| ~~~~~~~~~~~~~~ ~~~~~~~~~~
| |-3--|
| a +Q +E +S S S T T T T T T +S +E. +S
|---------------------5-----------------------------|
|-8b10-(8)----(8)-(8)---5-8---5---------------------|
|---------------------------7---5-7-----------------|
|-----------------------------------7-(7)-(7)---(7)-|
|---------------------------------------------------|
|---------------------------------------------------|


A G5 Dadd11/F#
S E. +E. S S S S S S S E
|------------------------------3-----3-----3--------3----|
|-3---------2--------(2)-2-----3--3--------3-----3--3----|
|-2---------2--------(2)-2-----0-----------2-------------|
|-4---------2--------(2)-2-----0-----------0-------------|
|-0---------0--------(0)-0-------------------------------|
|------------------------------3-----------2----------0--|
|
| PM ~~~
| S a +S S S Q a S S T T T T Q
|--------------------------------------------------------|
|---13b14-(13)-------------------------------------------|
|--------------14----14----------14-14----14----14------|
|-----------------14-------14s16-16-16p14-16p14-16------|
|--------------------------------------------------------|
|--------------------------------------------------------|


A D/A
S E. +E E S E S E E
|---------------------------------------------------------|
|-2--3---------(3)-3-------3-------------------------3--3-|
|-2--2---------(2)-2-------2-------------------------2--2-|
|-2--4---------(4)-4-------4-------------------------4--4-|
|-0--0---------(0)-0---0---0--------------------0----0--0-|
|---------------------------------------------------------|
|
| ~~~ ~~~~~~~~~~ ~~~~~~~~
| S E. a +Q +S S a +S a +S +Q
|---------------------------------------------------------|
|-------------------------19------------------------------|
|---14--16b18-(16)---(16)----16b18-(16)-16b18-(16)-(16)---|
|-x-------------------------------------------------------|
|---------------------------------------------------------|
|---------------------------------------------------------|


A G5 Dadd11/F#
S E. +E. S S S S S S S E
|------------------------------3--------3-----3-----3---|
|-3---------2--------(2)-2-----3--3-----------3--3--3---|
|-2---------2--------(2)-2-----0--------------2---------|
|-4---------2--------(2)-2-----0--------------0---------|
|-0---------0--------(0)-0------------------------------|
|------------------------------3--------------2-------0-|
|
| S a +E a S Q a S T T S a S Q
|-------------------------------------------------------|
|-x-13b15-(13)-15p13------------------------------------|
|-x------------------14---------14-14-14-------14-----|
|--------------------------14s16----------14s16---------|
|-------------------------------------------------------|
|-------------------------------------------------------|


A D/A
S E. +E E S E S E E
|-----------------------------------------------------------------------|
|---------2--3--------------(3)-3---------------3-----------------3---3-|
|---------2--2--------------(2)-2---------------2-----------------2---2-|
|---------2--4--------------(4)-4---------------4-----------------4---4-|
|---------0--0--------------(0)-0------------0--0------------0----0---0-|
|-----------------------------------------------------------------------|
|
| ~~~~ ~~~~~~~~
| a +E. a +S +E. S a +E S a +S +E E
|-----------------------------------------------------------------------|
|---------------------------------10--------------10--------------------|
|-12b14-(12)----12b14-(12)-(12)------12b14-(12)------12b14-(12)-(12)---|
|-----------------------------------------------------------------------|
|-----------------------------------------------------------------------|
|-----------------------------------------------------------------------|


A G5 Dadd11/F#
S E. +E. S S S S S S S E
|----------------------------------3----------3----3----------------3-----------------|
|---------3--2--------------(2)-2--3----3----------3------------3---3-----------------|
|---------2--2--------------(2)-2--0---------------2----------------------------------|
|---------4--2--------------(2)-2--0---------------0----------------------------------|
|---------0--0--------------(0)-0-----------------------------------------------------|
|----------------------------------3---------------2-------------------------------0--|
|
| ~~~~ ~~~~~~~~
| |--------6---------|
| a +E. a +S +Q S S S S S S a +S T a +T +E
|---------------------------------17--------------------------------------------------|
|-20b22-(20)----20b22-(20)-(20)------20---17----17------------------------------------|
|--------------------------------------------19------17-19b21-(19)-19-19b21-(19)-(19)-|
|-------------------------------------------------------------------------------------|
|-------------------------------------------------------------------------------------|
|-------------------------------------------------------------------------------------|


A D/A
S E. +E E S E S E E
|--------------------------------------------------------------------------------------|
|---------2---3-----------------------(3)-3---------------------3----------3------3----|
|---------2---2-----------------------(2)-2---------------------2----------2------2----|
|---------2---4-----------------------(4)-4---------------------4----------4------4----|
|---------0---0-----------------------(0)-0-----------0---------0------0---0------0----|
|--------------------------------------------------------------------------------------|
|
| ~~~~~~~
| a +S S a +S S a E. +S S a +S S S +E a S S
|--------------------------------------------------------------------------------------|
|------------20-------------20--------20-----------------------------------------------|
|-19b21-(19)-----19b21-(19)----19b21-(19)---(19)pb21r19-17b18-(17)------------------14-|
|------------------------------------------------------------------19-19-(19)-14s16----|
|--------------------------------------------------------------------------------------|
|--------------------------------------------------------------------------------------|


A G5 Dadd11/F#
S E. +E. S S S S S S S E
|--------------------------------------------------3------3--3-----3--------------|
|---------3--2--------------(2)---------2----------3---3-----3--3--3--------------|
|---------2--2--------------(2)---------2----------0---------2--------------------|
|---------4--2--------------(2)---------2----------0---------0--------------------|
|---------0--0--------------(0)---------0-----------------------------------------|
|--------------------------------------------------3---------2-------0------------|
|
| ~~~~~~~~ ~~~~~~~
| a +E a +E +E. a +S a +S S S S E S a +S
|---------------------------------------------------------------------------------|
|----------------------------------------------------------------------13b14-(13)-|
|-16b18-(16)----16b18-(16)-(16)-16b18-(16)-16b18-(16)-14----14--------------------|
|--------------------------------------------------------17----17----------------|
|---------------------------------------------------------------------------------|
|---------------------------------------------------------------------------------|


A D/A
Gtrs I, II
S E S E S S S E S E S S
|----------------------------------------------------------------------------------|
|--2-3-3---------3--3---------3---------2------------3------3-------3----------3-3-|
|--2-2-2---------2--2---------2---------2------------2------2-------2----------2-2-|
|--2-4-4---------4--4---------4---------2------------4------4-------4----------4-4-|
|--0-0-0---------0--0---------0---------0------------0------0-------0----------0-0-|
|----------------------------------------------------------------------------------|
|
| ~~
| |-----3------|
| Q a +E S a +S S S a +S S S S S S S
|-------------------------------------------------------15-------------------------|
|--------13b14-(13)---15b17-(15)pb17r15p==13-15b17-(15)----15b15.5-13-15b15.5-13---|
|-14-------------------------------------------------------------------------------|
|----------------------------------------------------------------------------------|
|----------------------------------------------------------------------------------|
|----------------------------------------------------------------------------------|


A G5 Dadd11/F#
S E S E S S S S S S S S E
|----------------------------------------------------3------3------3----------3----------3---------|
|-3---------2---2---------2----------------2--2------3---3---------3----------3----------3---------|
|-2---------2---2---------2----------------2--2------0-------------2-------------------------------|
|-4---------2---2---------2----------------2--2------0-------------0-------------------------------|
|-0---------0---0---------0----------------0--0----------------------------------------------------|
|----------------------------------------------------3-------------2------------------------0------|
|
| ~~~~ ~~~~
| S a +E S a +T T T T S S +S S S +S a +S a +E S
|--------------------------------------------------------------------------------------------------|
|---20b22-(20)-20---------------------------------------20------------------------------------20---|
|-----------------19b21-(19)pb21r19-17h19p17-19b21-(19)----19b21-(19)-19b21-(19)-19b21-(19)--------|
|--------------------------------------------------------------------------------------------------|
|--------------------------------------------------------------------------------------------------|
|--------------------------------------------------------------------------------------------------|


A D/A
S E S E S S S E S E S S
|-------------------------------------------------------------------------------------------------------------------|
|---------2--3------------3----3-------------3----------3----2--3--------------------3----3----------3---------3----|
|---------2--2------------2----2-------------2----------2----2--2--------------------2----2----------2---------2----|
|---------2--4------------4----4-------------4----------4----2--4--------------------4----4----------4---------4----|
|---------0--0------------0----0-------------0----------0----0--0--------------------0----0----------0---------0----|
|-------------------------------------------------------------------------------------------------------------------|
|
| ~~~~~~~~ ~~~~~~~~
| |-----3------|
| a +E S a +S +S S a +S a +S +E a +S a +S +E a +S S S
|-------------------------------------------------------------------------------------------------------------------|
|--------------20-----------------20--------------------------------------------------------------------------------|
|-19b21-(19)------19b21-(19)-(19)----19b20-(19)-19b21-(19)-(19)---19b20-(19)-19b21-(19)-(19)-19b21-(19)pb21r19p==17-|
|-------------------------------------------------------------------------------------------------------------------|
|-------------------------------------------------------------------------------------------------------------------|
|-------------------------------------------------------------------------------------------------------------------|


A G5 Dadd11/F#
S E S E S S S S S S S S E
|--------------------------3-----3--3--3-3---|
|--3------2--2--2--2-2-----3--3-----3--3-3---|
|--2------2--2--2--2-2-----0--------2--------|
|--4------2--2--2--2-2-----0--------0--------|
|--0------0--0--0--0-0-----------------------|
|--------------------------3--------2------0-|
|
| ~~~~~~~~~~~~~ ~~
| T T +E. E E a S s s S Q
|--------------------------------------------|
|--------------------------------------------|
|-17-------------------------14-14----14-----|
|----19-(19)---19-----14s16-------16-16-----|
|--------------------------------------------|
|--------------------------------------------|


A D/A
S E S E S S S E S E S S
|--------------------------------------------------------------------|
|--2--3-----3--3--3-3---------2----3------3---------3------------3-3-|
|--2--2-----2--2--2-2---------2----2------2---------2------------2-2-|
|--2--4-----4--4--4-4---------2----4------4---------4------------4-4-|
|--0--0-----0--0--0-0---------0----0------0---------0------------0-0-|
|--------------------------------------------------------------------|
|
| ~~ ~~ ~~
| S S S S e E a +S +S S S a +S +S E
|--------------------------------------------------------------------|
|--------------------------------------------------------------------|
|-14-14-14-14-14-14---19b21-(19)-(19)-19-17-19b21-(19)-(19)pb21r19---|
|--------------------------------------------------------------------|
|--------------------------------------------------------------------|
|--------------------------------------------------------------------|


A G5 Dadd11/F#
S E S E S S S S S S S S E
|-------------------------------------3----3--3---------3----3-----------------|
|--3-2-----------------2--2-----2--2--3--3----3---------3----3-----------------|
|--2-2-----------------2--2-----2--2--0-------2--------------------------------|
|--4-2-----------------2--2-----2--2--0-------0--------------------------------|
|--0-0-----------------0--0-----0--0-------------------------------------------|
|-------------------------------------3-------2------------------0-------------|
|
| ~~~~~
| E a +S S s s s s S E S a +S +S S a +S
|------------------------------------------------------------------------------|
|-20-----------------------------------------17-20b22-(20)-(20)-17-20b22-(20)--|
|------19b21-(19)pb21r19-19-19-19-19-17----------------------------------------|
|---------------------------------------19-------------------------------------|
|------------------------------------------------------------------------------|
|------------------------------------------------------------------------------|


A D/A
S E S E S S S E S E S S
|-----------------------------------------------------------------------------------------|
|----------2----3--------3---------3--3--3----------2----3--------------3---3--------3--3-|
|----------2----2--------2---------2--2--2----------2----2--------------2---2--------2--2-|
|----------2----4--------4---------4--4--4----------2----4--------------4---4--------4--4-|
|----------0----0--------0---------0--0--0----------0----0--------------0---0--------0--0-|
|-----------------------------------------------------------------------------------------|
|
| a +S +S +S S a +E. S a +S +S T +S. +S +S S S
|-----------------------------------------------------------------------------------------|
|-20b22==(20)-(20)-(20)r20-20b22-(20)r==20-20b22==(20)-(20)r20-(20)pb22---(20)-(20)r20p17-|
|-----------------------------------------------------------------------------------------|
|-----------------------------------------------------------------------------------------|
|-----------------------------------------------------------------------------------------|
|-----------------------------------------------------------------------------------------|


A G5 Dadd11/F#
S E S E S S S S S S S S E
|---------------------------------------3------3----------3----3----------3-------|
|----------3--2---2----2---2--2---------3---3-------------3----3----------3-------|
|----------2--2---2----2---2--2---------0-----------------2-----------------------|
|----------4--2---2----2---2--2---------0-----------------0-----------------------|
|----------0--0---0----0---0--0---------------------------------------------------|
|---------------------------------------3-----------------2------------------0----|
|
| ~~~~ ~~~~ ~~~~~~~~ ~~~~
| a +E. +S +E S S a +S S S a +S +S a +E S
|-20b22==(20)---(20)-(20)-17---------------17----------------------------------17-|
|----------------------------17-20b22-(20)----17-20b22==(20)-(20)-20b22-(20)------|
|---------------------------------------------------------------------------------|
|---------------------------------------------------------------------------------|
|---------------------------------------------------------------------------------|
|---------------------------------------------------------------------------------|


G5 Dadd11/F# G5 Dadd11/F# E5
S S S S S S E S S S S S S E
|----------3----3---3----3--3--------------------3------3--3-3-3-------0--|
|----------3--3-----3----3--3--------------------3---3-----3-3-3-------0--|
|----------0--------2----------------------------0---------2--------------|
|----------0--------0----------------------------0---------0-----------2--|
|----------------------------------------------------------------------2--|
|----------3--------2-----------0----------------3---------2-----------0--|
|
| ~~~~~~~~~~~~~~~~~ ~~~~
| |--3---|
| a +E. +S +E +S S S a +S S S S E a E
|---------------------------------------------------17----17--------------|
|-20b22==(20)-----(20)-(20)---(20)r20p17-20b22-(20)----20--------------5--|
|----------------------------------------------------------------7b9==(7)-|
|-------------------------------------------------------------------------|
|-------------------------------------------------------------------------|
|-------------------------------------------------------------------------|


+W
|-(0)------------|
|-(0)------------|
|----------------|
|-(2)------------|
|-(2)------------|
|-(0)------------|
|
|~~~~~~~~~~~~
| +H +Q. E
|----------------|
|-(5)----(5)-----|
|-(7)----(7)-----|
|----------------|
|----------------|
|----------------|


A/C# C5 C7 E
Gtr I
S S S S E S S S S S S E S S
| | | | | | | | | | | |
/ / / x x x / / / x x o

Gtr III
~~
Q S S E S S E a +e S S
|-----------------------------8b9-(8)-----|
|-----------10-----8-10-10-------------8-|
|---------x---------------------------9---|
|-----------------------------------------|
|-----------------------------------------|
|-----------------------------------------|
|
| Gtr II
| S S S S S S S S S S S S +E S S
|-5-5-5------6--5---3--3--3-6-----(6)-5---|
|-5-5-5------6--5---5--5--5-5-----(5)-5---|
|-----------------------------------------|
|-----------------------------------------|
|-4-4-4------4--4-3-3--3--3-3-------------|
|---------------------------------------0-|


G/B Bb5 Bb7 E
S S S S E S S S S S S S S S S
| | | | | | | | | | | |
/ / / x x / / / x x x o

~ ~
E S a +S +S S E S a +S S S E e
|-------------------------------------------------------|
|-10s==8--------------------5---------------------------|
|--------7b9==(7)-(7)r7-7-----5b6-(5)-------------------|
|-------------------------------------7-7--5b5.5---7----|
|-------------------------------------------------------|
|-------------------------------------------------------|
|
| S S S S S S S S S S S S +E S S
|--3-3-3--------------4-3---1------1--1-4-(4)------3----|
|--3-3-3--------------4-3---3------3--3-3-(3)------3----|
|-------------------------------------------------------|
|-------------------------------------------------------|
|--2-2-2--------------2-2-1-1------1--1-1----------1----|
|----------------------------------------------------0--|


A/C# C5 C7 E
S S S S E S S S S S S E S S
| | | | | | | | | | | |
/ / / x x x / / / x x o

PM ~ ~
|----3----|
E e S S E S S a +S S S a +e E
|--------------------------------------------------|
|----------------------------------------------5---|
|-----5-----------5-7-7b8-(7)pb8r7p==5-7b9-(7)-----|
|-7-------5-7-7------------------------------------|
|--------------------------------------------------|
|--------------------------------------------------|
|
| S S S S S S S S S S S S +E S S
|-5-5-5-----6-5---3-3------3-------6-------(6)-5---|
|-5-5-5-----6-5---5-5------5-------5-------(5)-5---|
|--------------------------------------------------|
|--------------------------------------------------|
|-4-4-4-----4-4-3-3-3------3-------3---------------|
|------------------------------------------------0-|


G/B Bb5 Bb7 E
S S S S E S S S S S S S S S S
| | | | | | | | | | | |
/ / / x x / / / x x x o

~~~~~~
Q +S S S S S a +E S +E S S
|-----------------------------------------------|
|-8b10-------(8)-8-5-------------------------5--|
|--------------------8-7-5b7-(5)---5-(5)--------|
|-----------------------------------------------|
|-----------------------------------------------|
|-----------------------------------------------|
|
| S S S S S S S S S S S S +E S S
|-3----3-3-------4-3---1------1--1-4-(4)---3----|
|-3----3-3-------4-3---3------3--3-3-(3)---3----|
|-----------------------------------------------|
|-----------------------------------------------|
|-2----2-2-------2-2-1-1------1--1-1-------1----|
|--------------------------------------------0--|


A/C# C5 C7 E
S S S S E S S S S S S E S S
| | | | | | | | | | | |
/ / / x x x / / / x x o

S S e a +E E S S S S +E. S
|-------------------------------------------------------------|
|------13---13b15-(13)---13b13.5---------13b13.5--------------|
|---14-----------------------------14-12---------14-(14)---14-|
|-------------------------------------------------------------|
|-------------------------------------------------------------|
|-------------------------------------------------------------|
|
| S S S S S S S S S S S S +E S S
|-5--5--5--------------6--5---------3--3--3-------6--(6)-5----|
|-5--5--5--------------6--5---------5--5--5-------5--(5)-5----|
|-------------------------------------------------------------|
|-------------------------------------------------------------|
|-4--4--4--------------4--4------3--3--3--3-------3-----------|
|-----------------------------------------------------------0-|


G/B Bb5 Bb7 E
S S S S E S S S S S S S S S S
| | | | | | | | | | | |
/ / / x x / / / x x x o

|---3----|
a +E a +E +S S S e a +E a +E +E E
|----------------------------------------------------------------------------------------|
|-12b13-(12)---12b13-(12)pb13r==(12)-12------12---12b13-(12)---12b13-(12)---(12)--------|
|-----------------------------------------14---------------------------------------------|
|----------------------------------------------------------------------------------------|
|----------------------------------------------------------------------------------------|
|----------------------------------------------------------------------------------------|
|
| S S S S S S S S S S S S +E S S
|---------3--3---------3----------------4-----3-----------1--1---------1--4--(4)----3----|
|---------3--3---------3----------------4-----3-----------3--3---------3--3--(3)----3----|
|----------------------------------------------------------------------------------------|
|----------------------------------------------------------------------------------------|
|---------2--2---------2----------------2-----2-1---------1--1---------1--1---------1----|
|-------------------------------------------------------------------------------------0--|


A/C# C5 C7 E
S S S S E S S S S S S E S S
| | | | | | | | | | | |
/ / / x x x / / / x x o

~~
|-----3------|
S a +S e E a +S S S a +S +S S a +E +E +S
|----------------------------------------------------------------15-----------------------------|
|---13b14-(13)-----------15b17-(15)pb17r15p==13-15b17==(15)-(15)----15b17==(15)-----(15)---(15)-|
|--------------14---14--------------------------------------------------------------------------|
|-----------------------------------------------------------------------------------------------|
|-----------------------------------------------------------------------------------------------|
|-----------------------------------------------------------------------------------------------|
|
| S S S S S S S S S S S S +E S S
|-5---------5---5------6---------5-----------------------3----3---3----------6--(6)------5------|
|-5---------5---5------6---------5-----------------------5----5---5----------5--(5)------5------|
|-----------------------------------------------------------------------------------------------|
|-----------------------------------------------------------------------------------------------|
|-4---------4---4------4---------4---------3-------------3----3---3----------3------------------|
|--------------------------------------------------------------------------------------------0--|


G/B Bb5 Bb7 E
S S S S E S S S S S S S S S S
| | | | | | | | | | | |
/ / / x x / / / x x x o

|------------3------------| |------------3------------|
a E a E a E a E a E a E a Q +S a +S S S
|--------15-----------15-----------15-----------15-----------15-----------15-----------15------------(15)------------------------|
|-15b17-(15)---15b17-(15)---15b17-(15)---15b17-(15)---15b17-(15)---15b17-(15)---15b17-(15)pb17r======(15)-15b17-(15)pb17r15-13---|
|--------------------------------------------------------------------------------------------------------------------------------|
|--------------------------------------------------------------------------------------------------------------------------------|
|--------------------------------------------------------------------------------------------------------------------------------|
|--------------------------------------------------------------------------------------------------------------------------------|
|
| S S S S S S S S S S S S +E S S
|---------3--3------------3-------------------------4------------3----------------------1------1-1-4--(4)-----------------3------|
|---------3--3------------3-------------------------4------------3----------------------3------3-3-3--(3)-----------------3------|
|--------------------------------------------------------------------------------------------------------------------------------|
|--------------------------------------------------------------------------------------------------------------------------------|
|---------2--2------------2-------------------------2------------2------------1---------1------1-1-1----------------------1------|
|----------------------------------------------------------------------------------------------------------------------------0---|


A/C# C5 C7 E
S S S S E S S S S S S E S S
| | | | | | | | | | | |
/ / / x x x / / / x x o

~~
S +S S S +S S S +S S S +S S a S S E
|------------15------------15------------15------------15---------------------------|
|-15b17-(15)----15b17-(15)----15b17-(15)----15b17-(15)----(15)pb17r15--13b13.5------|
|------------------------------------------------------------------------------14---|
|-----------------------------------------------------------------------------------|
|-----------------------------------------------------------------------------------|
|-----------------------------------------------------------------------------------|
|
| S S S S S S S S S S S S +E S S
|--5------5---5-------------6--5----------3--3------3---6----------(6)----------5---|
|--5------5---5-------------6--5----------5--5------5---5----------(5)----------5---|
|-----------------------------------------------------------------------------------|
|-----------------------------------------------------------------------------------|
|--4------4---4-------------4--4------3---3--3------3---3---------------------------|
|---------------------------------------------------------------------------------0-|


G/B Bb5 Bb7 E
S S S S E S S S S S S S S S S
| | | | | | | | | | | |
/ / / x x / / / x x x o

~~~~ ~~~~~~~
S S a +E S S E E e E a +E
|---------------------------------12---------------------------14b15-(14)---|
|-13b13.5-15-15b17-(15)---13b13.5--------------13b13.5----------------------|
|------------------------------------14---14--------------------------------|
|---------------------------------------------------------------------------|
|---------------------------------------------------------------------------|
|---------------------------------------------------------------------------|
|
| S S S S S S S S S S S S +E S S
|--3-------3---------3-------------4--3----1-1--1------4-(4)-----------3----|
|--3-------3---------3-------------4--3----3-3--3------3-(3)-----------3----|
|---------------------------------------------------------------------------|
|---------------------------------------------------------------------------|
|--2-------2---------2-------------2--2-1--1-1--1------1---------------1----|
|-------------------------------------------------------------------------0-|


A/C# C5 C7 E
S S S S E S S S S S S E S S
| | | | | | | | | | | |
/ / / x x x / / / x x o

+E. S S S S S S S S S S S S S
|-(14)-----12-11-0-----------------------------12-|
|------------------13-12----12-12-13-13--14-15----|
|------------------------14-----------------------|
|-------------------------------------------------|
|-------------------------------------------------|
|-------------------------------------------------|
|
| S S S S S S S S S S S S +E S S
|---5--5-5-------6--5-----3--3--3--6-(6)-----5----|
|---5--5-5-------6--5-----5--5--5--5-(5)-----5----|
|-------------------------------------------------|
|-------------------------------------------------|
|---4--4-4-------4--4--3--3--3--3--3--------------|
|-----------------------------------------------0-|


G/B Bb5 Bb7 E
S S S S E S S S S S S S S S S
| | | | | | | | | | | |
/ / / x x / / / x x x o

a +S S S S S S S S H
|--------------------------------------------------*|
|-15b17-(15)-13------------------------------------*|
|---------------14----14---------------------------*|
|------------------14----14-12---------------------*|
|--------------------------------------------------*|
|--------------------------------------------------*|
|
| S S S S S S S S S S S S +E S S
|---------3---3--3--------4--3---1-1-1-4-(4)---3---*|
|---------3---3--3--------4--3---3-3-3-3-(3)---3---*|
|--------------------------------------------------*|
|--------------------------------------------------*|
|---------2---2--2--------2--2-1-1-1-1-1-------1---*|
|------------------------------------------------0-*|


Duration Legend
---------------
W - whole; H - half; Q - quarter; E - 8th; S - 16th; T - 32nd; X - 64th; a - acciaccatura
+ - note tied to previous; . - note dotted; .. - note double dotted
Uncapitalized letters represent notes that are staccato (1/2 duration)
Irregular groupings are notated above the duration line
Duration letters will always appear directly above the note/fret number it represents the
duration for. Duration letters with no fret number below them represent rests. Multi-
bar rests are notated in the form Wxn, where n is the number of bars to rest for. Low
melody durations appear below the staff

Tablature Legend
----------------
h - hammer-on
p - pull-off
b - bend
pb - pre-bend
r - bend release (if no number after the r, then release immediately)
/ - slide into or out of (from/to "nowhere")
s - legato slide
S - shift slide
- natural harmonic
[n] - artificial harmonic
n(n) - tapped harmonic
~ - vibrato
tr - trill
T - tap
TP - trem. picking
PM - palm muting
n/ - tremolo bar dip; n = amount to dip
n - tremolo bar down
n/ - tremolo bar up
/n - tremolo bar inverted dip
= - hold bend; also acts as connecting device for hammers/pulls
<> - volume swell (louder/softer)
x - on rhythm slash represents muted slash
o - on rhythm slash represents single note slash

Misc Legend
-----------
| - bar
|| - double bar
||o - repeat start
o|| - repeat en

-----------------------------
|  акорди, навчання, відео  |
|     http://akords.org     |
-----------------------------

 (голосів: 0)
   Інші пісні:
  • Shoot To Thrill
  • Fire Your Guns
  • Rock N Roll Train
  • Hells Bells
  • For Those About To Rock
  •  
    Шановний відвідувач, Ви зайшли на сайт як незареєстрований користувач. Ми рекомендуємо Вам реєструватися або зайти на сайт під своїм ім'ям.

    Додавання коментаря

    Ім'я:*
    E-Mail:*
    Коментар:
    Введіть два слова, показані на зображенні: *
     
      

    BLIBL-створити сайт безкоштовно