Зробити стартовою  |  Додати в вибране
 
Пошук по сайту:  
  логін: пароль:  
    Реєстрація на сайті   Нагадати пароль?    

Видавництво Симфонія | Книжкова фабрика

akords.org » A » Ac Dc » Big Gun
Знайти необхідні акорди

Ac Dc - Big Gun  табулатура

Please note i didn't make this, it's merely the ASCII export from power tab seeing as we 
have a regular tab for it.

E E5 D5/A A5
0 2 2 1 x x 0 2 2 x x x x 0 0 2 3 x x 0 2 x x x

G5 A5(type 2) B B5
3 x 0 0 x x x 0 2 2 x x x 2 4 4 4 x x 2 4 4 x x

A D5 Em/A E(type 2)
x 0 2 2 2 x x x 0 2 3 x x 0 2 0 x x 0 2 2 1 0 x

Em/A(type 2) A(type 2) G5(type 2) G5/D
x 0 2 0 0 x x 0 x x x x 3 5 5 7 x x x x x x 3 3

Dsus2/A
x 0 2 2 3 x

Gtr I (E A D G B E) - 'Untitled'
Gtr II (E A D G B E) - 'Untitled'
Gtr III (E A D G B E) - 'Untitled'

Intro
Q=132
E E5
4/4
Gtr I
E E Q H W
| |
/ /

Gtr II
E E E E +E +E E E E E E E +Q E E
||--------3b3.5-(3)-(3)-0---|---0---0-(0)---------|
||o-----------------------3-|--------------3-(3)-|
||--1-----------------------|---------------------|
||--2-2---------------------|---------------------|
||o-2-2---------------------|---------------------|
||--0-0---------------------|---------------------|


E E5 D5A5 G
E E Q H H E E E. S
| | | | |
/ / / / o

E E E E +E +E E E Q E E E E E. S
|-------3b3.5-(3)-(3)-0-x-|-0--------------------||
|-------------------------|----3-(3)-x---------o||
|-1-----------------------|----------------------||
|-2-2---------------------|-------------0--------||
|-2-2---------------------|---------------0-----o||
|-0-0---------------------|------------------3---||


Pre-Verse
E5
W +W
| |
/ /

E E E E E E E E E E E E E E E E
||------------------|------------------|
||o-----------------|------------------|
||------------------|------------------|
||------------------|------------------|
||o-----5-----4-----|--2-----4-----2---|
||--0-7---0-5---0-3-|----0-5---0-3---3-|
|
| Gtr III
| E E E E E E E E E E E E E E E E
||------------------|------------------|
||o-----------------|------------------|
||------------------|------------------|
||--2-----2-----2---|----2-----2-------|
||o-2-2-5-2---4-2---|--2-2---4-2---2---|
||--0-----0-5---0-3-|----0-5---0-3---3-|


G5 A5Gtype 2)
+W +H +E E E E
| | | | | |
/ / / / / o

E E E E E E E E E E E E E E E E
|------------------|------------------------||
|------------------|-----------------------o||
|------------------|-------------0-----2----||
|------------------|-------------0-----2----||
|------5-----4-----|--2-----4----------0---o||
|--0-7---0-5---0-3-|----0-5----0-3b3.5---3--||
|
| E E E E E E E E E E E E E E E E
|------------------|------------------------||
|------------------|-------------------2---o||
|------------------|-------------------2----||
|--2-----2-----2---|----2------2-------2----||
|--2-2-5-2---4-2---|--2-2---4--2-2-----0---o||
|--0-----0-5---0-3-|----0-5----0-3-------3--||


Verse 1&2
E5
W +W
| |
/ /

E E E E E E E E E E E E E E E E
||------------------|------------------|
||o-----------------|------------------|
||------------------|------------------|
||------------------|------------------|
||o-----5-----4-----|--2-----4-----2---|
||--0-7---0-5---0-3-|----0-5---0-3---3-|


G5 A5Gtype 2)
+W +H +E E E E
| | | | | |
/ / / / / o

E E E E E E E E E E E E E E E E
|------------------|-----------------------|
|------------------|-----------------------|
|------------------|-------------0-----2---|
|------------------|-------------0-----2---|
|------5-----4-----|--2-----4----------0---|
|--0-7---0-5---0-3-|----0-5----0-3b3.5---3-|


E5
W +W
| |
/ /

E E E E E E E E E E E E E E E E
|-----------------|------------------|
|-----------------|------------------|
|-----------------|------------------|
|-----------------|------------------|
|-----5-----4-----|--2-----4-----2---|
|-0-7---0-5---0-3-|----0-5---0-3---3-|


G5 A5Gtype 2)
+W +H +E E E E
| | | | | |
/ / / / / o

E E E E E E E E E E E E E E E E
|------------------|------------------------|
|------------------|------------------------|
|------------------|-------------0-----2----|
|------------------|-------------0-----2----|
|------5-----4-----|--2-----4----------0----|
|--0-7---0-5---0-3-|----0-5----0-3b3.5---3--|


A5(type 2)
W +W
| |
/ /

E E E E E E E E E E E E E E E E
|-----------------|------------------|
|-----------------|------------------|
|-----------------|------------------|
|-----5-----4-----|--2-----4-----2---|
|-0-7---0-5---0-3-|----0-5---0-3---3-|
|-----------------|------------------|


C D5CA
W +H +E E E E
| | | | | |
/ / / o / o

E E E E E E E E E E E E E E E E
|-----------------|----------------------------|
|-----------------|----------------------------|
|-----------------|----------------------------|
|-----5-----4-----|--2-----4----------0--------|
|-0-7---0-5---0-3-|----0-5----0-------0--------|
|-----------------|-------------3b3.5---3b3.5--|


E5
W +W
| |
/ /

E E E E E E E E E E E E E E E E
|-----------------|------------------|
|-----------------|------------------|
|-----------------|------------------|
|-----------------|------------------|
|-----5-----4-----|--2-----4-----2---|
|-0-7---0-5---0-3-|----0-5---0-3---3-|


G5 A5Gtype 2)
+W +H +E E E E
| | | | | |
/ / / / / o

E E E E E E E E E E E E E E E E
|------------------|------------------------|
|------------------|------------------------|
|------------------|-------------0-----2----|
|------------------|-------------0-----2----|
|------5-----4-----|--2-----4----------0----|
|--0-7---0-5---0-3-|----0-5----0-3b3.5---3--|


Bridge 1&2
B B5 B A G5 D5/A A5(type 2)
Q. E +Q Q +E E Q Q Q Q. E +Q Q +E Q. Q Q
| | | | | | | | | | | | | | | | |
/ / / / / / / / / / / / / / / / /

Q E E +E E Q E Q E E E E E Q. E +E E Q +E Q. Q Q
|------------------|------------------|------3-(3)-3----|-----------------|
|-------2-(2)---4--|--------------4---|-2----3-(3)-3-3--|-(3)------2--2---|
|-4---4-2-(2)-2-4--|--4-2---2-2-4-4---|-2----0-(0)-0-2--|-(2)-2----2--2---|
|-4---4-2-(2)-2-4--|--4-2---2-2-4-4---|-2----0-(0)-0-0--|-(0)-2----2--2---|
|-2----------------|----------------0-|-0------------0--|-(0)-0----0--0---|
|------------------|------------------|------3-(3)-3----|-----------------|


Chorus 1&2
E E5
4/4
Gtr I
E E Q H W
| |
/ /

Gtr II
E E E E +E +E E E E E E E +Q E E
|-------3b3.5-(3)-(3)-0---|---0---0-(0)---------|
|-----------------------3-|--------------3-(3)-|
|-1-----------------------|---------------------|
|-2-2---------------------|---------------------|
|-2-2---------------------|---------------------|
|-0-0---------------------|---------------------|


E E5 D5A5 G
E E Q H H E E E. S
| | | | |
/ / / / o

E E E E +E +E E E Q E E E E E. S
|-------3b3.5-(3)-(3)-0-x-|-0------------------|
|-------------------------|----3-(3)-x--------|
|-1-----------------------|--------------------|
|-2-2---------------------|-------------0-0----|
|-2-2---------------------|---------------0----|
|-0-0---------------------|------------------3-|


E E5
E E Q H W
| |
/ /

E E E E +E +E E E E E E E +Q E E
|-------3b3.5-(3)-(3)-0---|---0---0-(0)---------|
|-----------------------3-|--------------3-(3)-|
|-1-----------------------|---------------------|
|-2-2---------------------|---------------------|
|-2-2---------------------|---------------------|
|-0-0---------------------|---------------------|


1.
2/4
W W W
E E E E E E E E E E E E +H +H
|------------------|----------------|--------|
|------------------|----------------|--------|
|------------------|----------------|--------|
|---5--------------|-------2-(2)----|-(2)----|
|-x---7---5--------|----------------|--------|
|-x-----------7-3-|-5-3-0-0-(0)----|-(0)----|


Pre-Verse2
E5
4/4
W +W
| |
/ /

E E E E E E E E E E E E E E E E
|-----------------|------------------|
|-----------------|------------------|
|-----------------|------------------|
|-----------------|------------------|
|-----5-----4-----|--2-----4-----2---|
|-0-7---0-5---0-3-|----0-5---0-3---3-|


G A5G
+W +H +E E E E
| | | | | |
/ / / o / o

E E E E E E E E E E E E E E E E
|------------------|------------------------||
|------------------|-----------------------o||
|------------------|-------------0-----2----||
|------------------|-------------0-----2----||
|------5-----4-----|--2-----4----------0---o||
|--0-7---0-5---0-3-|----0-5----0-3b3.5---3--||


2.
~~~~~~~~~~~~~~~~~~~~~~~~~~~~~~
E E E E E E E E E E E E +H +H.. +E
|-----------------------|----------------------|------------------|
|---12------------------|----------------------|------------------|
|---12------------------|----------------------|------------------|
|------14---12----------|----------/14-(14)----|-(14)--------(14)-|
|-x--------------12--10-|-12-10----------------|------------------|
|-x---------------------|-------12-------------|------------------|
|
| Gtr III
| E E E E E E E E E E E E +H +W
|-----------------------|----------------------|------------------|
|-----------------------|----------------------|------------------|
|-----------------------|----------------------|------------------|
|----5------------------|----------------------|------------------|
|-x-----7----5----------|----------------------|------------------|
|-x---------------7--3-|--5--3--0---0--(0)----|--(0)-------------|


~~~~~~~~~~~~~~~~~~~~~~~~~~~~
+Q. +E +H +W +Q a E E +S E S Q
|---------------------|-------------|---------------------------------|
|---------------------|-------------|---------------------------------|
|---------------------|-------------|---------12----------------------|
|-(14)---(14)-(14)----|-(14)--------|-(14)--x----14-(14)-12s17--------|
|---------------------|-------------|---------------------------------|
|---------------------|-------------|--------------------------12----|
|
| +W +W +H H
|---------------------|-------------|---------------------------------|
|---------------------|-------------|---------------------------------|
|---------------------|-------------|---------------------------------|
|---------------------|-------------|---------------------------------|
|---------------------|-------------|---------------------------------|
|--(0)----------------|--(0)--------|--(0)----------------------------|


Guitar Solo
E5
Gtr I
W +W
| |
/ /

PM| ~~~~~~~~ ~~~~~~ ~~~
E E Q +Q a Q E +E S S E +E. S E E
|---------------------|--------------------------------|
|---------------------|--------------------------------|
|---------------------|--------------------------------|
|-----------------5---|-(5)b5.5-(5)-------------x-x-/5-|
|-5-7-7---(7)---x-----|-------------7-5-7-(7)---x-x----|
|---------------------|--------------------------------|
|
| E E E E E E E E E E E E E E E E
|---------------------|--------------------------------|
|---------------------|--------------------------------|
|---------------------|--------------------------------|
|---------------------|--------------------------------|
|-----5-------4-------|--2--------------4---------2----|
|-0-7---0--5------0-3-|----------0--5------0--3------3-|


D5
+W +H. Q
| | |
/ / /

~~~~~
|-3-| |3| |-3-| |-3-|
+E. S S S S E E S S S S S S S S S S S S S E E E E E S S
|---------------------------------------|---------------------------|
|---------------------------------------|---------------------------|
|---------------------------------------|---------------------------|
|-(5)-----5p4p2p0-4p0-0h2---[5]-0-2p0h4-|-----0-------2-------12-12-|
|---------------------------------------|--0----2p0-----------------|
|---------------------------------------|-----------3---3p0-0-------|
|
| E E E E E E E E E E E E E E Q
|---------------------------------------|---------------------------|
|---------------------------------------|---------------------------|
|---------------------------------------|---------------------------|
|---------------------------------------|---------------------------|
|---------5-----------4-----------------|--5----------4-----5-------|
|--0--7---------0-5----------0----3-----|-------0---5---0-7---------|


E5
W +W
| |
/ /

~~~~~~~ ~~~~~~~~
S +S E Q H S +E S +Q E E Q
|------------------------------|--------------------------------------|
|------------------------------|---------------------------x----------|
|------------------------------|---------------------------x----------|
|-12b12.5-(12)-x-14---12-------|--------------------------------------|
|------------------------------|-12b14==(12)r==(12)-(12)--------------|
|------------------------------|-----------------------------12-12---|
|
| E E E E E E E E E E E E E E E E
|------------------------------|--------------------------------------|
|------------------------------|--------------------------------------|
|------------------------------|--------------------------------------|
|------------------------------|--------------------------------------|
|-----------------5------4-----|--2----------------------4-------2----|
|--0-----------7----0--5---0-3-|-------------0--------5----0--3-----3-|


+W
|
/

E E S S Q +S S S S E
|---------------------------------|
|-----------------------------14--|
|----------12-----------x-x-x-14--|
|----12-12----14---(14)---x-x-----|
|----12---------------------------|
|---------------------------------|
|
| E E E E E E E E
|---------------------------------|
|---------------------------------|
|---------------------------------|
|---------------------------------|
|--------5-----------4------------|
|--0--7--------0-5--------0----3--|


E5
+W
|
/

|3-| |3-|
E E E E S S E S +S S S S S
|-------------------10-12-12---------------------12-15p12-|
|-(14)b14.5-(14)b16-12-12----15-12------------12----------|
|-(14)b14.5-(14)b16----------------14b16-(14)-------------|
|---------------------------------------------------------|
|---------------------------------------------------------|
|---------------------------------------------------------|
|
| E E E E E E Q
|---------------------------------------------------------|
|---------------------------------------------------------|
|---------------------------------------------------------|
|---------------------------------------------------------|
|---5-------------------4----------------------5----------|
|-------------0------5--------0-----7---------------------|


A5(type 2)
W
|
/

~~~~
|-3-|
S S S E +Q E. S E S S
|----------------------------------12-------|
|-12-----15b17-(15)---(15)---15b16----15-12-|
|----x-x------------------------------------|
|-------------------------------------------|
|-------------------------------------------|
|-------------------------------------------|
|
| E E E E E E E E
|-------------------------------------------|
|-------------------------------------------|
|-------------------------------------------|
|----------------5---------4----------------|
|--0------7---------0---5-----------0--3----|
|-------------------------------------------|


A5(type 2)
W
|
/

S S S S S S S S S S S S S S S S
|-------12----------------------------12-12-------------|
|-------------------------------------12----15-12-------|
|-14b15----15p14p12----14----12-14b16-------------15p14p|
|-------------------14----14----------------------------|
|-------------------------------------------------------|
|-------------------------------------------------------|
|
| E E E E E E E E
|-------------------------------------------------------|
|-------------------------------------------------------|
|-------------------------------------------------------|
|--2--------------------4--------------------2----------|
|-----------0-----5-----------0--------3-----------3----|
|-------------------------------------------------------|


+W
|
/

~~~~~~~~~ ~~
S S S S Q +E S S S S E
|-----------------------------------|
|-----------------------------------|
|-12----14----12---(12)-9-9-9-9-12--|
|----14----14-----------------------|
|-----------------------------------|
|-----------------------------------|
|
| E E E E E E E E
|-----------------------------------|
|-----------------------------------|
|-----------------------------------|
|--------------5--------4-----------|
|--0-----7-------0---5------0----3--|
|-----------------------------------|


A5(type 2)
+H. Q
| |
/ /

~~~~
|-3--|
+Q S S S E Q E S S
|------------------------x-x-x-|
|------------------------x-x-x-|
|-(12)---12p11p9----9---x-x-x-|
|----------------11------------|
|------------------------------|
|------------------------------|
|
| E E E E E E Q
|------------------------------|
|------------------------------|
|------------------------------|
|---5-------------4------5-----|
|------0--5---------0--7-------|
|------------------------------|


B5
Q Q +E E Q Q Q +Q Q
| | | | | | | | |
/ / / / / / / / /

~
E E Q S S S S S S S S E E E E Q E S S
|--------------------------|-----------------------|
|-7--------7---------------|-------7-(7)----------|
|-7--------7-8---9---7h8---|-----7-7-(7)--14------|
|---9-9--------9---9-----9-|-9-9------------x-x-12-|
|--------------------------|-----------------------|
|--------------------------|-----------------------|
|
| Q E E E E Q E Q E Q E E
|--------------------------|-----------------------|
|--------------------------|-----------------------|
|-4---4-4--4---4---4-------|-4-4---4--4-----4------|
|-4---4-4--4---4---4-------|-4-4---4--4-----4-0----|
|-2---2-2--2---2---2-------|-2-2---2--2-----2-0----|
|--------------------------|-----------------------|


A5(type 2)
Q. E +Q Q E +Q. Q Q
| | | | | | | |
/ / / / / / / /

~~~~~~~ ~~~~~~~~~~
S E. S S E +E S S a Q +E S +S E E +Q Q
|------------------------------|---------------------------------------------|
|------------------------------|-----------------15----15----(15)--(15)-----|
|--------x-x-12-(12)-x-x---14--|-(14)-14b16-(14)-14b16-14b16-(14)--(14)b16--|
|-12h14--x-x---------x-x-x-----|---------------------------------------------|
|------------------------------|---------------------------------------------|
|------------------------------|---------------------------------------------|
|
| Q. E +Q Q +E Q. Q Q
|------------------------------|---------------------------------------------|
|------------------------------|---------------------------------------------|
|--2----------2--(2)--------2--|--(2)--2-----------------------2-----2-------|
|--2----------2--(2)--------2--|--(2)--2-----------------------2-----2-------|
|--0----------0--(0)--------0--|--(0)--0-----------------------0-----0-------|
|------------------------------|---------------------------------------------|


Chorus3
E
E E Q H W
| |
/ /

~~~~~~
E E E E +E +E E E E E E E +Q E E
|-------3b3.5-(3)-(3)-0---|---0-----------------|
|-----------------------3-|-------5-(5)--3-(3)-|
|-1-1---------------------|---------------------|
|-2-2---------------------|---------------------|
|-2-2---------------------|---------------------|
|-0-0---------------------|---------------------|


D5A5 G
E E Q H H E E E. S
| | | | |
/ / / / o

E E E E +E +E E E Q E E Q +S E S
|-------3b3.5-(3)-(3)-0---|-0-------------------------------|
|-----------------------x-|----3-2b3---(2)b3======(2)r(2)---|
|-1-1-------------------x-|------2b2.5r(2)b2.5====(2)r(2)-0-|
|-2-2---------------------|---------------------------------|
|-2-2---------------------|---------------------------------|
|-0-0---------------------|---------------------------------|


E A5
E E Q H E E Q H
| | | |
/ / / /

~~~~~~~~~
W Q a +S E. E +E E S S
|-------------|----------------------------------|
|-------------|----------------------------------|
|-------------|-----2b4==(2)r(2)-(2)b4-(2)-2p0---|
|-------------|--------------------------------2-|
|-------------|----------------------------------|
|-------------|----------------------------------|


E(Eype 2) A5
E E Q H E E Q H
| | | |
/ / / /

~~
W Q Q E E S E.
|-------------|--------------------|
|-------------|-----12--x-x-------|
|-------------|-----12--x-x-7h9---|
|-------------|--------------------|
|-------------|--------------------|
|-------------|--------------------|


E A5
E E Q H E E Q H
| | | |
/ / / /

~~~
+E. S Q Q S S E E E a +E E +E +E a +S S S S
|-----------------------|------------------------------------------------------------|
|-----------------------|------------------------------------------------------------|
|-(9)-----------12-12---|-12---14b16==(14)r(14)b16-(14)-(14)-14pb16==(14)r(14)p12----|
|-----------------------|---------------------------------------------------------14-|
|-----------------------|------------------------------------------------------------|
|-----------------------|------------------------------------------------------------|


E(type 2) A5
E E Q H E E E E E E E E
| | | | | |
/ / / / / /

H Q. E +E S S E E a +E S E S E
|-------------------|------12-12-------12---------------12------------|
|-------------------|------12-12-------12------------12---------------|
|-------------14b16-|-(14)-------14b16----14b16-(14)---------x-14b16--|
|-------------------|-------------------------------------------------|
|-------------------|-------------------------------------------------|
|-------------------|-------------------------------------------------|


Out-Chorus
E A5
E E Q H E E Q H
| | | |
/ / / /

~~~~~~~~ ~~
|3|
S S E E S E +E +Q S S E S S E S S S S S S Q
|-12-12---x-x--------------------12-|-------12------------------------------|
|-------------15b17-(15)-(15)-------|-12-15----15pb17-15-12-----------------|
|-----------------------------------|-----------------------15-14p12--------|
|-----------------------------------|--------------------------------14-14--|
|-----------------------------------|---------------------------------------|
|-----------------------------------|---------------------------------------|


E A5 D5A5 G
E E Q H E E Q E E E. S
| | | | | | |
/ / / / / / o

~~~~~~~~~ ~~
Q Q S S E E E +Q S S e Q Q
|--------------------------|-------------------------------|
|-12----------------------|-------------------------------|
|-12----------------------|-------------------------------|
|-------------x-x-12-12-14-|-(14)---x----------------------|
|-------------x-x--x--x--x-|----------10-------------------|
|-------/12---------------|-------------12-12---(12)-----|


E A5(type 2) E
E E Q H E E Q H E E Q H
| | | | | |
/ / / / / /

PM| PM|
Q E E E E Q E E a +E E +E. S Q H S E S E S S
|----------------------|---------------------------|-------------------------|
|-[5]------------------|---------------------------|-------------------------|
|----------------------|---------------------------|-------------------------|
|-----------12-x------|-----5b6-(5)-5-(5)-(5)----|-------------------------|
|----------------------|-0-------------------------|--------10-10p0-0----10--|
|-------0-0-------10--|-0-0-----------------------|------------------12-----|


A A5
E Q E +E Q E
| | | | | |
o / / / / /

~~
E S S S S S S S S S S Q
|---------------------------------------|
|---------------------------------------|
|---------------------------------------|
|---------------------------------------|
|-------10----10-10-10----10------------|
|-12-12----12----------12----12p10-12---|


E D5/A A5(type G) A5 G5(typeD5/A G E
E E E E +Q E E E E E E +E E E S S
| | | | | | | | | | | | | |
/ / / / / o / o / / / / o o

H S S E E. +S S S E E E E E E +E
|--------------------------------|--------------------------------|
|--------------14-(14)b15---(14)-|-14---------------15----(15)----|
|--------------14-(14)b15---(14)-|-14-12---x--------14b16-(14)----|
|--------------------------------|--------------x-x---------------|
|--------------------------------|--------------------------------|
|----------x-x-------------------|--------------------------------|


E5 D5/A A5Gtype 2)
E E E E +Q E E
| | | | | |
/ / / / / o

~~~~~~~~~~~~~~~~~
E. a +S +S a +E. Q. E
|-------------------------------------------------------|
|-(15)---15----(15)-(15)-15----(15)---15--------15------|
|-(14)---14b16-(14)-(14)-14b16-(14)---14b16----(14)pb16-|
|-------------------------------------------------------|
|-------------------------------------------------------|
|-------------------------------------------------------|


A5(type 2) A G5 D5/A A5 G
E E E E +E E E. S
| | | | | | | |
/ / o / / / / o

a +S S E a +Q +E E E E
|------------12------------------------------------|
|---------------12-15b17-(15)---(15)-(15)-(15)-x---|
|-14b16-(14)---------------------------------------|
|--------------------------------------------------|
|--------------------------------------------------|
|--------------------------------------------------|


E5 D5/A A5(type 2G
E E E E +Q E E
| | | | | |
/ / / / / o

|----3----| |------5------|
Q Q Q S S S S S S S S S
|-12----------------12---------------------------|
|------12---15b17------15p12---------------------|
|----------------------------15-14p12------14----|
|-------------------------------------14------14-|
|------------------------------------------------|
|------------------------------------------------|


A5(type A) G5 A5(type 2) G
E E E E +Q E S S
| | | | | | |
/ o / / / o /

Q S E S S S E +E a +E
|---------12------------12----15b17-(15)-15b17-(15)---|
|------------15------------12-------------------------|
|-14b16-----------14b16-------------------------------|
|-----------------------------------------------------|
|-----------------------------------------------------|
|-----------------------------------------------------|


E5 D5/A A5(typG 2)
E E E E +Q E E
| | | | | |
/ / / / / o

+E S S S S E +S S S S S S S S
|-(15)-15p12------------------15-12-------------12-|
|------------15p12-15b17-(15)-------15-12----12----|
|-----------------------------------------15-------|
|--------------------------------------------------|
|--------------------------------------------------|
|--------------------------------------------------|


A5 G5
E +Q E +E Q E
| | | | | |
/ / / / / /

S S S S S S S S S E S E E
|-------------12-------------12-15p12---12----------|
|-15p12----------15p12-14b16------------12----------|
|-------14b16-----------------------------------2b3--|
|----------------------------------------------------|
|----------------------------------------------------|
|-------------------------------------------10------|


E5 D5/A A5GtypA5(type 2) G5 D5/AG E
E E E E +Q E E E E E E +Q E S S
| | | | | | | | | | | | | | |
/ / / / / / o / / / / / / o o

E S S S S S +S +E a S S Q +E E +S S S S S S S S S S S S
|-------0-0---------------0---0-0---|-(0)---------0----------------------|
|-----0-----0-3b5-(3)-(3)---0---0---|-(0)-3b5-(3)---5p0--3p0-------------|
|-(2)-------------------------------|------------------------3p0-3p0-----|
|-----------------------------------|--------------------------------2p0-|
|-----------------------------------|------------------------------------|
|-----------------------------------|------------------------------------|


E5 D5/A A5(tyGe 2A5(typA 2) G5 D5
E E E E +Q E E E E E E +Q Q
| | | | | | | | | | | | |
/ / / / / / o / / o / / /

S S E Q Q Q E E S E S S E S S S E
|------------------------|----------------------------------|
|-----------/15---------|----------------------------------|
|------------------------|----------------------------------|
|-2p0--------------------|----------------------------------|
|------------------------|----10----------------------------|
|-----3p0---------/12---|-12----12s9---12-12s9-12-12-12-12-|


E5 D5/A A5GtypA5(type G5 D5GA E
E E E E +Q E E E E E E +Q E S S
| | | | | | | | | | | | | | |
/ / / / / / o / / / / / / o o

TP TP TP
W H. E E
|------------------|----------------------|
|------------------|----------------------|
|------------------|-----------------12---|
|------------------|----------------------|
|------------------|----------------------|
|-12---------------|-12-------------------|


E5 D5/A A5(typG 2) A5(type 2) G5 D5/A
E E E E +Q E E E E E E +E E Q
| | | | | | | | | | | | | |
/ / / / / / o / / / / / / /

~~
|3|
E S S S S S E E S S S E E S E E E +E Q.
|----------------------------------------|---------------------------|
|-------------------------------14-------|-14------------------------|
|-14-12h13----14-12-------14-12-14-12----|-14-x-12-12-12-(12)--------|
|----------14-------14----------------14-|---------------------------|
|----------------------------------------|---------------------------|
|----------------------------------------|--------------------15----|


E5 G5 A5 G5
W +H +E E E E
| | | | | |
/ / / / / /

E E E E E E E E E E E E E a +S S +E E
|-----------------|-------------------------------------|
|-----------------|-------------2b3==(2)r(2)b3==(2)r(2)-|
|-----------------|-------------2b3==(2)r(2)b3==(2)r(2)-|
|-----------------|-------------------------------------|
|-----5-----4-----|--2-----4----------------------------|
|-0-7---0-5---0-3-|----0-5------------------------------|
|
| Gtr III
| E E E E E E E E E E E E E E E E
|-----------------|-------------------------------------|
|-----------------|-------------------------------------|
|-----------------|-------------------------------------|
|-2-----2-----2---|----2------2-------------------------|
|-2-2-5-2---4-2---|--2-2---4--2------------------2------|
|-0-----0-5---0-3-|----0-5----0-------3--------------3--|


E5 G5 A5(Gype 2)
W +H +E E E E
| | | | | |
/ / / / / o

~~
|--3--|
E E E E E E E E E E E E E S S S Q
|-----------------|----------------------------|
|-----------------|---------------12-12--------|
|-----------------|-----------x-x-12-12--------|
|-----------------|-----------x-x-------14-----|
|-----5-----4-----|--2-----2-------------------|
|-0-7---0-5---0-3-|----0-3-0-------------------|
|
| E E E E E E E E E E E E E E E E
|-----------------|----------------------------|
|-----------------|----------------------2-----|
|-----------------|-------------0--------2-0---|
|-2-----2-----2---|----2------2-0--------2-0---|
|-2-2-5-2---4-2---|--2-2---4--2----------0-----|
|-0-----0-5---0-3-|----0-5----0-3----------3---|


E5
W +H +E E E E
| | | | | |
/ / / o o o

E E E E E E E E E E E E E E E E
|-----------------|-----------------------|
|-----------------|-----------------------|
|-----------------|-----------------------|
|-----------------|-----------------------|
|-----5-----4-----|--2-----4----------2---|
|-0-7---0-5---0-3-|----0-5----0-3b3.5---3-|
|
| Gtr III
| E E E E E E E E E E E E E E E E
|-----------------|-----------------------|
|-----------------|-----------------------|
|-----------------|-----------------------|
|-2-----2-----2---|----2------2-----------|
|-2-2-5-2---4-2---|--2-2---4--2-------2---|
|-0-----0-5---0-3-|----0-5----0-3-------3-|


H.=H
W W
~~~~~
E E Q Q E E E E E. S +E S. +T +E E
|--------------------|-------------------------------------|
|--------------------|-------------------------------------|
|---12---------------|-------------------------------------|
|------14--12--------|-----------2-(2)-14b16==(14)r(14)----|
|--------------12-10-|-12-10-----2-(2)---------------------|
|--------------------|-------12-0-(0)------------------12-|
|
| E E q Q E E E E Q H
|--------------------|-------------------------------------|
|--------------------|-------------------------------------|
|--------------------|-------------------------------------|
|----5---------------|--------------2----------------------|
|-------7---5--------|--------------2----------------------|
|--------------/5--3-|--5--3--0-----0----------------------|


E5 E5
W +Q +E E H
| |
/ /

E E Q a +S S E E E E E E E E E Q
|-------------------------------------|---------------------*|
|-------------------------------------|-------x------------*|
|----------------7b9==(7)r(7)p(5)-5-5-|--5----x-/x--------*|
|---------------------------------5-5-|--5-------/x--------*|
|-------------------------------------|---------------------*|
|-(12)-12-12-----------------------|--------------0------*|


Duration Legend
---------------
W - whole; H - half; Q - quarter; E - 8th; S - 16th; T - 32nd; X - 64th; a - acciaccatura
+ - note tied to previous; . - note dotted; .. - note double dotted
Uncapitalized letters represent notes that are staccato (1/2 duration)
Irregular groupings are notated above the duration line
Duration letters will always appear directly above the note/fret number it represents the
duration for. Duration letters with no fret number below them represent rests. Multi-
bar rests are notated in the form Wxn, where n is the number of bars to rest for. Low
melody durations appear below the staff

Tablature Legend
----------------
h - hammer-on
p - pull-off
b - bend
pb - pre-bend
r - bend release (if no number after the r, then release immediately)
/ - slide into or out of (from/to "nowhere")
s - legato slide
S - shift slide
- natural harmonic
[n] - artificial harmonic
n(n) - tapped harmonic
~ - vibrato
tr - trill
T - tap
TP - trem. picking
PM - palm muting
n/ - tremolo bar dip; n = amount to dip
n - tremolo bar down
n/ - tremolo bar up
/n - tremolo bar inverted dip
= - hold bend; also acts as connecting device for hammers/pulls
<> - volume swell (louder/softer)
x - on rhythm slash represents muted slash
o - on rhythm slash represents single note slash

Misc Legend
-----------
| - bar
|| - double bar
||o - repeat start
o|| - repeat end
*| - double bar (ending)
: - bar (freetime)
$ - Segno
& - Coda
Tempo markers - = BPM(8/16=s8/s16), where s8 = swing 8ths, s16 = swing 16ths

-----------------------------
|  акорди, навчання, відео  |
|     http://akords.org     |
-----------------------------

 (голосів: 3)
   Інші пісні:
  • Rock N Roll Singer
  • Janies Got A Gun
  • Sabbath Bloody Sabbath
  • The Bards Song The Hobbit
  • War Machine
  •  
    Шановний відвідувач, Ви зайшли на сайт як незареєстрований користувач. Ми рекомендуємо Вам реєструватися або зайти на сайт під своїм ім'ям.

    Додавання коментаря

    Ім'я:*
    E-Mail:*
    Коментар:
    Введіть два слова, показані на зображенні: *
     
      

    BLIBL-створити сайт безкоштовно