Зробити стартовою  |  Додати в вибране
 
Пошук по сайту:  
  логін: пароль:  
    Реєстрація на сайті   Нагадати пароль?    

Видавництво Симфонія | Книжкова фабрика

akords.org » A » Ac Dc » Big Balls
Знайти необхідні акорди

Ac Dc - Big Balls   табулатура

AC/DC - BIG BALLS
(Young/Young/Scott)

Tabber: Mord_Wraith
E-mail: thundastruck@hotmail.com
Date: 8/30/2004

Tuning (low to high): EADGBE

Intro:

Guitar I (Angus)

E|---------------------------------------------------------|
B|---------------------------------------------------------|
G|---------------------------------------------------------|
D|---6---6-5-4-2---2-4-5-6---6-5-4-2---2-4-5-6---6-5-4-2---|
A|---7---7-6-5-3---3-5-6-7---7-6-5-3---3-5-6-7---7-6-5-3---|
E|---------------------------------------------------------|

Guitar II (Malcolm)

E C E C E C

E|---------------------------------------------------------|
B|---9---------5---------9---------5---------9---------5---|
G|---9---------5---------9---------5---------9---------5---|
D|---9---------5---------9---------5---------9---------5---|
A|---7---------3---------7---------3---------7---------3---|
E|---------------------------------------------------------|

Guitar I

B7

E|-------------2-2-2-2-2---|
B|-------------0-0-0-0-0---|
G|-------------2-2-2-2-2---|
D|---2/-4---4-1-1-1-1-1---|
A|---3/-5---5-2-2-2-2-2---|
E|-------------------------|

Guitar II

D B

E|-------------------------|
B|------7------4-4-4-4-4---|
G|------7------4-4-4-4-4---|
D|------7------4-4-4-4-4---|
A|------5------2-2-2-2-2---|
E|-------------------------|

Verse:

E C

Well I'm rather upper class, high society

E C

God's gift to ballroom notoriety

E C

And I always fill my ballroom, the event is never small

D B7

The social pages say I've got the biggest balls of all

Chorus:

Guitar I

E Eb C# Eb E Eb C#

E|----------------------------| E|-------------------------|
B|---9-9-9-9--8--6-6-6-6--8---| B|---9-9-9-9--8--6-6-6-6---|
G|---9-9-9-9--8--6-6-6-6--8--o| play twice G|---9-9-9-9--8--6-6-6-6---|
D|---9-9-9-9--8--6-6-6-6--8--o| D|---9-9-9-9--8--6-6-6-6---|
A|---7-7-7-7--6--4-4-4-4--6---| A|---7-7-7-7--6--4-4-4-4---|
E|----------------------------| E|-------------------------|

I've got big balls . . .

Guitar II

E C# E C#

E|----------------------------| E|-------------------------|
B|---9-----------6------------| B|---9-----------6---------|
G|---9-----------6-----------o| play twice G|---9-----------6---------|
D|---9-----------6-----------o| D|---9-----------6---------|
A|---7-----------4------------| A|---7-----------4---------|
E|----------------------------| E|-------------------------|

C D A B

But we've got the biggest balls of them all

---

The same chords are used in the rest of the song, and the rest of the song is pretty much
the same as what's posted.

-----------------------------
|  акорди, навчання, відео  |
|     http://akords.org     |
-----------------------------

 (голосів: 2)
   Інші пісні:
  • Shes Got Balls
  • Ben Wah Balls
  • Balls Out
  • Chase The Ace
  • Spoilin For A Fight
  •  
    Шановний відвідувач, Ви зайшли на сайт як незареєстрований користувач. Ми рекомендуємо Вам реєструватися або зайти на сайт під своїм ім'ям.

    Додавання коментаря

    Ім'я:*
    E-Mail:*
    Коментар:
    Введіть два слова, показані на зображенні: *
     
      

    BLIBL-створити сайт безкоштовно