Зробити стартовою  |  Додати в вибране
 
Пошук по сайту:  
  логін: пароль:  
    Реєстрація на сайті   Нагадати пароль?    

Видавництво Симфонія | Книжкова фабрика

akords.org » A » Ac Dc » Bedlam In Belgium
Знайти необхідні акорди

Ac Dc - Bedlam In Belgium  табулатура

Bedlam In Belgium
by AC/DC
From Flick Of The Switch
Tabbed by Cam Clarke


Something like this at the start
|---5---------------------------------------|
|---5---5-5---5-5-5-----5-5---5-5-5---5-5-5-|
|-2-----4-4---4-4-4---2-4-4-2-4-4-4---4-4-4-|
|-------------------------------------------|
|-------------------------------------------|
|-------------------------------------------|

x 4 x 12 x 2
|-------3-------|-----------3-------|-----------2-|-----------3-------|
|-----3-3-3-3---|-------333-3-3-3---|-1---------3-|-------333-3-3-3---|
|-2---2-0-2-2---|---2---222-0-2-2---|-0-------0-2-|---2---222-0-2-2---|
|-2---0-0-0-0---|---2---000-0-0-0---|-2-----0---0-|---2---000-0-0-0---|
|-0-------------|-x-0---------------|-3---2-------|-x-0---------------|
|---------------|-------------------|-------------|-------------------|

|---------------------------2-------------------2-----|
|---------------------------3----3----3----3----3-----|
|-5-----------------------0-2----2----2----2----2-222-|
|-5----5----5----5------0---0-00-0-00-0-00-0-00-0-000-|
|-3-33-3-33-3-33-3-33-2-------------------------------|
|-----------------------------------------------------|

x 2
|-------3---33-------------|---------3--------|
|-------3---33-3---3-1---1-|-----333-3---3-3~-|
|-2---2-0---00-2---2-0---0-|-2---222-0---2-2~-|
|-2---2-0---00-0---0-2---2-|-2---000-0---0-0~-|
|-0---0-x---xx-------3---3-|-0----------------|
|-------3---33-------------|------------------|

x 2
|-------3---33-------------|---------3--------|
|-------3---33-3---3-1---1-|-----333-3---3-3~-|
|-2---2-0---00-2---2-0---0-|-2---222-0---2-2~-|
|-2---2-0---00-0---0-2---2-|-2---000-0---0-0~-|
|-0---0-x---xx-------3---3-|-0----------------|
|-------3---33-------------|------------------|

x 8 x 2
|-----------3-------|-----------2-|-----------3-------|
|-------333-3-3-3---|-1---------3-|-------333-3-3-3---|
|---2---222-0-2-2---|-0-------0-2-|---2---222-0-2-2---|
|---2---000-0-0-0---|-2-----0---0-|---2---000-0-0-0---|
|-x-0---------------|-3---2-------|-x-0---------------|
|-------------------|-------------|-------------------|

|---------------------------2-------------------2-----|
|---------------------------3----3----3----3----3-----|
|-5-----------------------0-2----2----2----2----2-222-|
|-5----5----5----5------0---0-00-0-00-0-00-0-00-0-000-|
|-3-33-3-33-3-33-3-33-2-------------------------------|
|-----------------------------------------------------|

x 2
|-------3---33-------------|---------3--------|
|-------3---33-3---3-1---1-|-----333-3---3-3~-|
|-2---2-0---00-2---2-0---0-|-2---222-0---2-2~-|
|-2---2-0---00-0---0-2---2-|-2---000-0---0-0~-|
|-0---0-x---xx-------3---3-|-0----------------|
|-------3---33-------------|------------------|

x 2
|-------3---33-------------|---------3--------|
|-------3---33-3---3-1---1-|-----333-3---3-3~-|
|-2---2-0---00-2---2-0---0-|-2---222-0---2-2~-|
|-2---2-0---00-0---0-2---2-|-2---000-0---0-0~-|
|-0---0-x---xx-------3---3-|-0----------------|
|-------3---33-------------|------------------|

x 3 X 4
|-------3---33-------------|---------3--------|
|-------3---33-3---3-1---1-|-----333-3---3-3~-|
|-2---2-0---00-2---2-0---0-|-2---222-0---2-2~-|
|-2---2-0---00-0---0-2---2-|-2---000-0---0-0~-|
|-0---0-x---xx-------3---3-|-0----------------|
|-------3---33-------------|------------------|

x 2
|-------------------2----|---------3--------|
|-------------------3----|-----333-3---3-3~-|
|-5---------------0-2----|-2---222-0---2-2~-|
|-5----5----5---0---0-00-|-2---000-0---0-0~-|
|-3-33-3-33-3-2----------|-0----------------|
|------------------------|------------------|

x 2
|-------------------2----|---------3--------|
|-------------------3----|-----333-3---3-3~-|
|-5---------------0-2----|-2---222-0---2-2~-|
|-5----5----5---0---0-00-|-2---000-0---0-0~-|
|-3-33-3-33-3-2----------|-0----------------|
|------------------------|------------------|

|---------------------------2-------------------2-----|
|---------------------------3----3----3----3----3-----|
|-5-----------------------0-2----2----2----2----2-222-|
|-5----5----5----5------0---0-00-0-00-0-00-0-00-0-000-|
|-3-33-3-33-3-33-3-33-2-------------------------------|
|-----------------------------------------------------|

x 4 x 2
|-------3---33-------------|---------------|
|-------3---33-3---3-1---1-|-2~-----2~-----|
|-2---2-0---00-2---2-0---0-|-2~-----2~-----|
|-2---2-0---00-0---0-2---2-|-2~-----2~-----|
|-0---0-x---xx-------3---3-|-0~-----0~-----|
|-------3---33-------------|---------------|

x 4 x 2
|---------3--------|-------3---33-------------|---------3--------|
|-----333-3---3-3~-|-------3---33-3---3-1---1-|-----333-3---3-3~-|
|-2---222-0---2-2~-|-2---2-0---00-2---2-0---0-|-2---222-0---2-2~-|
|-2---000-0---0-0~-|-2---2-0---00-0---0-2---2-|-2---000-0---0-0~-|
|-0----------------|-0---0-x---xx-------3---3-|-0----------------|
|------------------|-------3---33-------------|------------------|

x 2
|-------3---33-------------|---------3--------|
|-------3---33-3---3-1---1-|-----333-3---3-3~-|
|-2---2-0---00-2---2-0---0-|-2---222-0---2-2~-|
|-2---2-0---00-0---0-2---2-|-2---000-0---0-0~-|
|-0---0-x---xx-------3---3-|-0----------------|
|-------3---33-------------|------------------|

x 2
|-------3---33-------------|---------3--------|
|-------3---33-3---3-1---1-|-----333-3---3-3~-|
|-2---2-0---00-2---2-0---0-|-2---222-0---2-2~-|
|-2---2-0---00-0---0-2---2-|-2---000-0---0-0~-|
|-0---0-x---xx-------3---3-|-0----------------|
|-------3---33-------------|------------------|

x 2
|-------3---33-------------|---------3--------|
|-------3---33-3---3-1---1-|-----333-3---3-3~-|
|-2---2-0---00-2---2-0---0-|-2---222-0---2-2~-|
|-2---2-0---00-0---0-2---2-|-2---000-0---0-0~-|
|-0---0-x---xx-------3---3-|-0----------------|
|-------3---33-------------|------------------|

x 2
|-------3---33-------------|-----3-----2-----------|
|-------3---33-3---3-1---1-|-----3-----3-----1-----|
|-2---2-0---00-2---2-0---0-|-2---0-----2-----0-----|
|-2---2-0---00-0---0-2---2-|-2---0-----0-----2-----|
|-0---0-x---xx-------3---3-|-0---x-----------3-----|
|-------3---33-------------|-----3-----------------|

|---------------------------------------|
|---------------------------------------|
|-2~--------loads of strumming--------2-|
|-2~-----and leg shaking by Angus-----2-|
|-0~--------------here----------------0-|
|---------------------------------------|

There’s a lot of crap tabs with this song about so I though I’d tab my own. I couldn’t
bothered to do the solo. Lyrics as well coz they’re nearly always wrong when you see ‘em too.

The blood in my veins was running right through my brain
There was a cop with a gun who was running around insane
Three fifty arrests
No bulletproof vests
Now ain’t that a shame

We wanted to play
Play for the crowd
Law said no way coz you’re on your way out
Bedlam in Belgium
Bedlam in Belgium

The place was a jumping and the booze was going down
There’s a curfew at ten you been working overtime
We don’t play just for pay
So we let the stage
Stay just the same

He gave me a crack in the back with his gun
I’m hit so bad I could feel the blood run
Bedlam in Belgium
It was bedlam in Belgium
Bedlam in Belgium
Came for a good time and left on the run
Bedlam in Belgium
Who’s to blame?
It’s a shame

Bedlam
In Belgium
It was bedlam

Stand was staged
Cops in a rage
Crowd yelled for more
It was war, war, war
Bedlam in Belgium
It was bedlam in Belgium
Bedlam in Belgium
Came for a good time and left on the run,
Bedlam in Belgium,
It was bedlam in Belgium
It was bedlam in Belgium
It was bedlam
And the law got the drop on me

-----------------------------
|  акорди, навчання, відео  |
|     http://akords.org     |
-----------------------------

 (голосів: 2)
   Інші пісні:
  • Honey Dont
  • Honey Dont 3
  • Adia
  • All My Loving 7
  • Thats What She Said 2
  •  
    Шановний відвідувач, Ви зайшли на сайт як незареєстрований користувач. Ми рекомендуємо Вам реєструватися або зайти на сайт під своїм ім'ям.

    Додавання коментаря

    Ім'я:*
    E-Mail:*
    Коментар:
    Введіть два слова, показані на зображенні: *
     
      

    BLIBL-створити сайт безкоштовно