Зробити стартовою  |  Додати в вибране
 
Пошук по сайту:  
  логін: пароль:  
    Реєстрація на сайті   Нагадати пароль?    

Видавництво Симфонія | Книжкова фабрика

akords.org » A » Ac Dc » Ballbreaker
Знайти необхідні акорди

Ac Dc - Ballbreaker  табулатура

Ballbreaker

E|----------------|-----------|
B|--3--2----2--0--|--2--0-----|
G|--4--2----2--0--|--2--0-----|
D|----------------|--------2--|
A|----------------|--------2--|
E|----------------|--------0--|

MAIN RIFF "We Bang on Nine...."
|-------3----------|------------------3---------------|
|-------3----------|------------------3---------------|
|-------0----------|------------------0---------------|
|--2-2--0---2------|--2---2----2--2---0----2----------|
|--2-2--x---2--x---|--2---2----2--2---x----2-------x--|
|--0-0--3---0--x---|--0---0----0--0---3----0-------x--|


PRE-CHORUS "..up the door" "livin' out her dreams"
|--3-3-3-3--2----2-------------|--3-3-3-3--2----2--3--2--3--|
|--3-3-3-3--3----3-------------|--3-3-3-3--3----3--3--3--3--|
|--0-0-0-0--2----2---2-2-------|--0-0-0-0--2----2--2--2--2--|
|--0-0-0-0--0----0---2-2--2-2--|--0-0-0-0--0----0--0--0--0--|
|--x-x-x-x--0----0---0-0--2-2--|--x-x-x-x--0----------------|
|--3-3-3-3----------------0-0--|--3-3-3-3-------------------|


CHORUS 2x LET RING
|-------3-----------|-------3---------------|
|-------3-----------|-------3---------------|
|-------0-----------|-------0---------------|
|--2-2--0----2------|--2-2--0----2----------|
|--2-2--x----2---x--|--2-2--x----2----------|
|--0-0--3----0---x--|--0-0--3----0----------|


SOLO

|-------8-------------------------------------------------5------------------
|--10~~-----------7b-r----------------------------------5------7~~---5-----8b
|-----------------7b-r--5------x---8b-8b-8b--8b-8-8b--7------8-7~~---5-------
|-------------------------7~~--x----------------------------------------7----
|-----------xx--------------------------------------------------------------
|-----------xx--------------------------------------------------------------

pm
|-5-----------|-5-5-0-5-------------8b--8-5----------------------------------
|---8b~~~~~~--|----------8b-8b-8-5----------8-5---------------5--------------
|-------------|---------------------------------7b--7-5-7~~~--5--.----5~~~~--
|-------------|--------------------------------------------------7-.--5~~~~--
|-------------|----------------------------------------------------7---------
|-------------|--------------------------------------------------------------

pm
|-------------------|--------------------------------------------------------
|-------------------|---------------7----------------------------------------
|-------------------|------7b--rp5--7p5----------5--5p2p0---4br-2------------
|---------------.---|----x--------------7~~~~---5----------------4-2-x-7---
|---7-5-7~~~~~--7---|--x-----------------------------------------------------
|-------------------|--------------------------------------------------------


|----------------8~~~~~~~--------8b~~8~~8~~-|--------------------------------
|--------10~~~~--10~~~~~~--10~~~-8b~~8~~8~~-|--10-10-13~---13-10-13-10-13-10-
|------x------------------------------------|--------------------------------
|--x/--------------------------------------|--------------------------------
|-------------------------------------------|--------------------------------
|-------------------------------------------|--------------------------------

tremelo
|------------------------------------------|
|13-10-13-10-13-(10h13)----------10-------|
|-------------------------------------7/---| SORRY, BUT THATS ALL I'VE GOT
|------------------------------------------|
|------------------------------------------| SO FAR. I'LL KEEP WORKING
|------------------------------------------|
ON IT.

-----------------------------
|  акорди, навчання, відео  |
|     http://akords.org     |
-----------------------------

 (голосів: 2)
   Інші пісні:
  • Rock Show
  • Walk On Wate
  • Iron Man
  • Riff Raff
  • Nib
  •  
    Шановний відвідувач, Ви зайшли на сайт як незареєстрований користувач. Ми рекомендуємо Вам реєструватися або зайти на сайт під своїм ім'ям.

    Додавання коментаря

    Ім'я:*
    E-Mail:*
    Коментар:
    Введіть два слова, показані на зображенні: *
     
      

    BLIBL-створити сайт безкоштовно