Зробити стартовою  |  Додати в вибране
 
Пошук по сайту:  
  логін: пароль:  
    Реєстрація на сайті   Нагадати пароль?    

Видавництво Симфонія | Книжкова фабрика

akords.org » A » Ac Dc » Back In Business
Знайти необхідні акорди

Ac Dc - Back In Business  табулатура

from "Fly On The Wall" album
tab by Voytazz

10h12 - hammer on
11b13r11 - ghost bend and release
~~~~~~ - hold vibrato
~ - vibrato


Playing order:
Intro |x4|
Verse:
Riff 1 |x8| During that riff Angus kicks his mini solo
Riff 2 |x4|
Riff 1 |x4|
Riff 3 |x3|
Riff 2 |x1| + ending before chorus
Chorus |x2|

Verse nr2:
Riff 1 |x4| + one part from mini solo from 1st verse ( look to Riff 1 to border[ : ] )
Riff2 |x4|
Riff 1 |x4|
Riff 3 |x3|
Riff 2 |x1| + ending to chorus
Chorus |x2|
Then goes solo ( soon i will post it)
then choruses and theme mixes)


Intro
Angus plays that way . Malcolm plays that way but he plays also a note in ( ) *
e|---------------------------|
b|---------------------------|
g|---------------------------|
D|--5-3--5-5-5-----3-5-------|
A|--5-5--5-5-5-(5)-1-3-------|
E|--------------3------------|


_______________________________________________
Riff 1 *
|----------------------|
|----------------------|
|----------------------|
|--3-5-5-5--3-5--------|
|--5-5-5-5--1-3-(5)----|
|----------------3-----|

At the begining of the Riff 1 , Angus kicks:
|------------------------------------------------------------------|
|-----------------:---------------------------------11b13r11-------|
|--10h12-12~~~~~~-:----------10h12-12~~~~~--------------------12~-|
|-----------------:------------------------------------------------|
|-----------------:------------------------------------------------|
|------------------------------------------------------------------|
________________________________________________

Riff2
|-----------------------------------------------------------------|
|-----------------------------------------------------------------|
|-----------------------------------------------------------------|
|--3-5-3--5-8-5---------------------------------------------------|
|--1-3-1--3-6-3---------------------------------------------------|
|-----------------------------------------------------------------|

End before chorus :

|----------------------------|
|----------------------------|
|----------------------------|
|-3-5-3-5---3-5--------------|
|-1-3-1-3---3-5--------------|
|-----------1-3--------------|

___________________________________________________________________

Riff3

|--------------------|
|--------------------|
|-7------3-5-5-5-----|
|-7------3-5-5-5-----|
|-5------1-3-3-3-----|
|--------------------|
____________________________________________________

to 2d part of chorus
Chorus Malcolm Mal' Ang'
|------------------------------------------------------ ----------------|
|------------------------------------------------------ ----- b-10-12-|
|---------------3--------------------------------3-5--- ----- g-10-12-|
|-3-5-5-5--3-5--3-5--3-5-5--3-5----3-5-5-5--3-5--3-5--- -3-5------------|
|-3-5-5-5--3-5--1-5--3-5-5--3-5----3-5-5-5--3-5--1-3--- -3-5------------|
|-1-3-3-3--1-3----3--1-3-3--1-3----1-3-3-3--1-3-------- -1-3------------|


Chorus Angus
|---------------------------------------------------------------------------|
|-------------------------------------------------------------------11-13---|
|-10-12-12-12---10-12--------10-12-12-10-12-----10-12-12-12--10-12--10-12---|
|-10-12-12-12-----------8----10-12-12-10-12-----10-12-12-12--10-12----------|
|------------------------10~------------------------------------------------|
|---------------------------------------------------------------------------|

-----------------------------
|  акорди, навчання, відео  |
|     http://akords.org     |
-----------------------------

 (голосів: 2)
   Інші пісні:
  • Boogie Man
  • Fly On The Wall
  • Shot Down In Flames
  • High Voltage
  • Lets Get It Started
  •  
    Шановний відвідувач, Ви зайшли на сайт як незареєстрований користувач. Ми рекомендуємо Вам реєструватися або зайти на сайт під своїм ім'ям.

    Додавання коментаря

    Ім'я:*
    E-Mail:*
    Коментар:
    Введіть два слова, показані на зображенні: *
     
      

    BLIBL-створити сайт безкоштовно