Зробити стартовою  |  Додати в вибране
 
Пошук по сайту:  
  логін: пароль:  
    Реєстрація на сайті   Нагадати пароль?    

Видавництво Симфонія | Книжкова фабрика

akords.org » A » Ac Dc » Are You Ready
Знайти необхідні акорди

Ac Dc - Are You Ready  табулатура

Tuning- Standard
Bend- b
Hammeron- h
Pulloff- p
Palm mute- P.M.
Unison bend- U.B.
Slide-
Pinched harmonics- []

Intro (guitar 1)
E------0---------0----|------0---------0----|------0--------0---|
B---------------------|----3---3-----3---3--|----3---3----3---3-|
G---2----2----2----2--|---------------------|-------------------|
D-0---------0---------|---------------------|-------------------|
A---------------------|-3---------3---------|-2---------2-------|
E---------------------|---------------------|-------------------|

E------0--------0---|
B----3---3----3---3-|
G-------------------|
D-------------------| x2
A-3--------3--------|
E-------------------|

E-----0-------0---|------0---------0---|-----0--------0---|
B---2---2---2---2-|----3---3-----3---3-|---3---3----3---3-|
G-0-------0-------|--------------------|------------------|
D-----------------|--------------------|------------------|
A-----------------|--------------------|------------------|
E-----------------|-2---------2--------|-3-------3--------|
|
Guitar 2 |
E-----------------|--------------------|------------------|
B-----------------|--------------------|------------------|
G-----------------|--------------------|------------------|
D-0~~~~~~~~~~~~~~~|-0~~~~~~~~~~~~~~~~~~|------------------|
A-----------------|--------------------|------------------|
E-----------------|--------------------|-3~~~~~~~~~~~~~~~~|

Guitar 1
E------0---------0----|------0----|
B----3---3-----3---3--|----3---3--|
G---------------------|-----------|
D---------------------|-----------|
A---------------------|-----------|
E-1---------1---------|-1---------|
|
Guitar 2 |
E---------------------|-----------|
B---------------------|-----------|
G---------------------|-----------|
D---------------------|-----------|
A---------------------|-----------|
E-1~~~~~~~~~~~~~~~~~~~|-1~~~~~~~~~|

Verse (guitars 1 and 2)
E----------------------------------------|
B----------------------------------------|
G-7--7----5---5----7----7----10---5------|
D-7--7----5---5----7----7----10---5---5--| x9
A-5--5----3---3----5----5----8----3---5--|
E-------------------------------------3--|

Chorus (guitars 1 and 2)
E---------0-----------|--------0-----------|-------0-----------|
B------3-------3---3--|------3-------3---3-|-----3-------3---3-|
G---2------------2----|----2-----------2---|---2-----------2---|
D-0---------0---------|--------------------|-------------------|
A---------------------|--------------------|-------------------|
E---------------------|-2---------2--------|-3--------3--------|

E--------0-----------|
B------3-------3---3-|
G----2-----------2---|
D--------------------| x2
A--------------------|
E-1--------1---------|

E----------------------|--------------------|
B----------------------|--------------------|
G-7--7--7---5---5---7--|-5--5--5---5--5---5-|
D-7--7--7---5---5---7--|-5--5--5---5--5---5-|
A-5--5--5---3---3---5--|-3--3--3---2--2---3-|
E----------------------|--------------------|

E---------------------|---------------------|
B---------------------|---------------------|
G-5--5--5----------5--|-5--5--5---5--5---5--|
D-5--5--5---4--4---5--|-5--5--5---5--5---5--| x2
A-2--2--2---0--0---2--|-3--3--3---2--2---3--|
E---------------------|---------------------|

Solo 1 (guitar 1)
E-------------------------------|------------------------------|
B-13----12--12--10-----13---12--|-----13---12---12---10-----13-|
G-14----12--12--10-----14---12--|-12--14---12---12---10-----14-|
D------------------12-----------|-----------------------12-----|
A-------------------------------|------------------------------|
E-------------------------------|------------------------------|
|
(Guitar 2) |
E----------------------------------------|
B----------------------------------------|
G-7--7----5---5----7----7----10---5------|
D-7--7----5---5----7----7----10---5---5--| x2
A-5--5----3---3----5----5----8----3---5--|
E-------------------------------------3--|




Verse (guitars 1 and 2)
E----------------------------------------|
B----------------------------------------|
G-7--7----5---5----7----7----10---5------|
D-7--7----5---5----7----7----10---5---5--| x4
A-5--5----3---3----5----5----8----3---5--|
E-------------------------------------3--|

Chorus (guitars 1 and 2)
E---------0-----------|--------0-----------|-------0-----------|
B------3-------3---3--|------3-------3---3-|-----3-------3---3-|
G---2------------2----|----2-----------2---|---2-----------2---|
D-0---------0---------|--------------------|-------------------|
A---------------------|--------------------|-------------------|
E---------------------|-2---------2--------|-3--------3--------|

E--------0-----------|
B------3-------3---3-|
G----2-----------2---|
D--------------------|
A--------------------|
E-1--------1---------|

E----------------------|--------------------|
B----------------------|--------------------|
G-7--7--7---5---5---7--|-5--5--5---5--5---5-|
D-7--7--7---5---5---7--|-5--5--5---5--5---5-|
A-5--5--5---3---3---5--|-3--3--3---2--2---3-|
E----------------------|--------------------|

E---------------------|---------------------|
B---------------------|---------------------|
G-5--5--5----------5--|-5--5--5---5--5---5--|
D-5--5--5---4--4---5--|-5--5--5---5--5---5--| x2
A-2--2--2---0--0---2--|-3--3--3---2--2---3--|
E---------------------|---------------------|

Solo 2 (guitar 1)/(Guitar 2- verse riff x4)
E--------------------------------------|--------------------------------|
B---------13b--13b--13-----------------|--------------------------------|
G----------------------12--12--10------|--------------------------------|
D---------------------------------12/--|-3-5b-5-3--5b--5-3----------[3]-|
A--------------------------------------|-------------------5-5-5-[5]----|
E-0*-----------------------------------|--------------------------------|
*slow down note one octave

E---------------------------------|-10----10-----10-10-|
B-12--12--10--12--12--10--12--12--|----10----13b-------|
G-12b-12--10--12b-12--10--12b-12b-|--------------------|
D---------------------------------|--------------------|
A---------------------------------|--------------------|
E---------------------------------|--------------------|

E-----------------|--------10----------------------|
B-12--12--12--12--|-----------13--12--12-----------|
G-12b-12b-12b-12b-|-12-12b--------12b-12----10-----|
D-----------------|----------------------------12b-|
A-----------------|--------------------------------|
E-----------------|--------------------------------|

E-13b-10---------------------------|-----------|-----------------|
B-------13-10-12b-12---------------|-----------|-----------------|
G-------------------10--12-10------|-----------|------10-----[10]|
D---------------------12-----12-10-|-12-10-10/-|-12-12--12-12----|
A----------------------------------|-----------|-----------------|
E----------------------------------|-----------|-----------------|

Guitar 2
E----------------------------------|-----------|-3~~~~~~~~~~~~~~~|
B----------------------------------|-3~~~~~~~~~|-0~~~~~~~~~~~~~~~|
G-7~~~~~~~~~~~~~~~~~~~~~~~~~~~~~~~~|-2~~~~~~~~~|-0~~~~~~~~~~~~~~~|
D-5~~~~~~~~~~~~~~~~~~~~~~~~~~~~~~~~|-0~~~~~~~~~|-0~~~~~~~~~~~~~~~|
A-5~~~~~~~~~~~~~~~~~~~~~~~~~~~~~~~~|-0~~~~~~~~~|-0~~~~~~~~~~~~~~~|
E----------------------------------|-2~~~~~~~~~|-3~~~~~~~~~~~~~~~|

Guitar 1
E----------------------|----------------------|----------------------------|
B----------------------|----------------------|--------------------13---13-|
G-[12b]----------------|----------------------|----10-12b-12-10-12b--12b---|
D----------------------|-------10-10-12----10-|-12-------------------------|
A-------12-11-10-------|-12-12----------12----|----------------------------|
E----------------13-10-|----------------------|----------------------------|

Guitar 2
E----------------------|----------------------|----------------------------|
B-3~~~~~~~~~~~~~~~~~~~~|----------------------|-3~~~~~~~~~~~~~~~~~~~~~~~~~~|
G-2~~~~~~~~~~~~~~~~~~~~|-7~~~~~~~~~~~~~~~~~~~~|-2~~~~~~~~~~~~~~~~~~~~~~~~~~|
D-0~~~~~~~~~~~~~~~~~~~~|-5~~~~~~~~~~~~~~~~~~~~|-0~~~~~~~~~~~~~~~~~~~~~~~~~~|
A-0~~~~~~~~~~~~~~~~~~~~|-5~~~~~~~~~~~~~~~~~~~~|-0~~~~~~~~~~~~~~~~~~~~~~~~~~|
E-1~~~~~~~~~~~~~~~~~~~~|----------------------|-2~~~~~~~~~~~~~~~~~~~~~~~~~~|

Guitar 1
E------------------------|-13-15b-15b-|
B-----13--------------15-|------------|
G-12b----12b--15--12-----|------------|
D------------------------|------------|
A------------------------|------------|
E------------------------|------------|

Guitar 2
E------------------------|------------|
B-3~~~~~~~~~~~~~~~~~~~~~~|-3~~~~~~~~~~|
G-0~~~~~~~~~~~~~~~~~~~~~~|-2~~~~~~~~~~|
D-0~~~~~~~~~~~~~~~~~~~~~~|-0~~~~~~~~~~|
A-0~~~~~~~~~~~~~~~~~~~~~~|-0~~~~~~~~~~|
E-3~~~~~~~~~~~~~~~~~~~~~~|-1~~~~~~~~~~|

Chorus (guitars 1 and 2)

E----------------------|--------------------|
B----------------------|--------------------|
G-7--7--7---5---5---7--|-5--5--5---5--5---5-|
D-7--7--7---5---5---7--|-5--5--5---5--5---5-|
A-5--5--5---3---3---5--|-3--3--3---2--2---3-|
E----------------------|--------------------|

E---------------------|---------------------|
B---------------------|---------------------|
G-5--5--5----------5--|-5--5--5---5--5---5--|
D-5--5--5---4--4---5--|-5--5--5---5--5---5--|
A-2--2--2---0--0---2--|-3--3--3---2--2---3--|
E---------------------|---------------------|


(Guitar 2)
E----------------------------------------|
B----------------------------------------|
G-7--7----5---5----7----7----10---5------|
D-7--7----5---5----7----7----10---5---5--|
A-5--5----3---3----5----5----8----3---5--|
E-------------------------------------3--|

Guitar 1
E----------------------------------------|
B---------------------13b--13--10--------|
G---------------------------------12b-12-|
D----------------------------------------|
A----------------------------------------|
E----------------------------------------|

Guitar 2
E----------------------------------------|
B----------------------------------------|
G-7--7----5---5----7----7----10---5------|
D-7--7----5---5----7----7----10---5---5--|
A-5--5----3---3----5----5----8----3---5--|
E-------------------------------------3--|


Guitar 1
E----------------------------------------|
B----------------------10-13---10-13-13--|
G-------------------12b-----12b--------12|
D----------------------------------------|
A----------------------------------------|
E----------------------------------------|

Outro (Guitars 1 and 2)
E----------------------------------------|
B----------------------------------------|
G-7--7----5---5----7----7----10---5------|
D-7--7----5---5----7----7----10---5---5--| x4
A-5--5----3---3----5----5----8----3---5--|
E-------------------------------------3--|


Guitar 2
E----------------------------------------|
B----------------------------------------|
G-7--7----5---5----7----7----10---5------|
D-7--7----5---5----7----7----10---5---5--|
A-5--5----3---3----5----5----8----3---5--|
E-------------------------------------3--|

Guitar 1
E---------------------13b--13--10--13-10-|
B----------------------------------------|
G----------------------------------------|
D----------------------------------------|
A----------------------------------------|
E----------------------------------------|


E-----------------------------------------|
B-13b--13--10-----------------------------|
G--------------13-12-10-----12--10--------|
D------------------------12---------12-12-|
A-----------------------------------------|
E-----------------------------------------|

Guitars 1 and 2
E---|
B---|
G-7-|
D-7-|
A-5-|
E---|

ENJOY!

-----------------------------
|  акорди, навчання, відео  |
|     http://akords.org     |
-----------------------------

 (голосів: 2)
   Інші пісні:
  • Spoilin For A Fight
  • I Hope You Die
  • Aint No Fun
  • War Pigs
  • Back Seat Confidential
  •  
    Шановний відвідувач, Ви зайшли на сайт як незареєстрований користувач. Ми рекомендуємо Вам реєструватися або зайти на сайт під своїм ім'ям.

    Додавання коментаря

    Ім'я:*
    E-Mail:*
    Коментар:
    Введіть два слова, показані на зображенні: *
     
      

    BLIBL-створити сайт безкоштовно