Зробити стартовою  |  Додати в вибране
 
Пошук по сайту:  
  логін: пароль:  
    Реєстрація на сайті   Нагадати пароль?    

Видавництво Симфонія | Книжкова фабрика

akords.org » A » Ac Dc » Anything Goes
Знайти необхідні акорди

Ac Dc - Anything Goes  табулатура

AC/DC-Anything Goes
Black Ice (2008)
Transcribed by: playinbass1432
Email: playinbass1432@hotmail.com

Standard Tuning

Intro:


Angus and Malcolm (Rhythm):

P.M.------------------------| P.M.------------------------|
D5 D5
E|-----------------|-----------------|-----------------|-----------------|
B|-----------------|-----------------|-----------------|-----------------|
G|-7-7-7-----------|-----------------|-7-7-7-----------|-----------------|
D|-7-7-7-7-7-7-7-7-|-7-7-7-7-7-7-7-7-|-7-7-7-7-7-7-7-7-|-7-7-7-7-7-7-7-7-|
A|-5-5-5-5-5-5-5-5-|-5-5-5-5-5-5-5-5-|-5-5-5-5-5-5-5-5-|-5-5-5-5-5-5-5-5-|
E|-----------------|-----------------|-----------------|-----------------|
|
| P.M.------------| P.M.------------|
| D5 A G A5 D5 A G A5
E|-----------------|-----------------|-----------------|-----------------|
B|-----------------|-----------------|-----------------|-----------------|
G|-7-777-6---4---2-|-----------------|-7-777-6---4---2-|-----------------|
D|-7-777-7---5---2-|-0-0-0-0-0-0-0-0-|-7-777-7---5---2-|-0-0-0-0-0-0-0-0-|
A|---------------0-|-----------------|---------------0-|-----------------|
E|-----------------|-----------------|-----------------|-----------------|


P.M.------------------------| P.M.------------------------|
D5 D5
E|-----------------|-----------------|-----------------|-----------------|
B|-----------------|-----------------|-----------------|-----------------|
G|-7-7-7-----------|-----------------|-7-7-7-----------|-----------------|
D|-7-7-7-7-7-7-7-7-|-7-7-7-7-7-7-7-7-|-7-7-7-7-7-7-7-7-|-7-7-7-7-7-7-7-7-|
A|-5-5-5-5-5-5-5-5-|-5-5-5-5-5-5-5-5-|-5-5-5-5-5-5-5-5-|-5-5-5-5-5-5-5-5-|
E|-----------------|-----------------|-----------------|-----------------|
|
| P.M.------------| P.M.------------|
| D5 A G A5 D5 A G A5
E|-----------------|-----------------|-----------------|-----------------|
B|-----------------|-----------------|-----------------|-----------------|
G|-7-777-6---4---2-|-----------------|-7-777-6---4---2-|-----------------|
D|-7-777-7---5---2-|-0-0-0-0-0-0-0-0-|-7-777-7---5---2-|-0-0-0-0-0-0-0-0-|
A|---------------0-|-----------------|---------------0-|-----------------|
E|-----------------|-----------------|-----------------|-----------------|



Angus (Multiple overdubs):



F.P.--------------------------------------------|
E|-------------------------|-------------------------|
B|-15-15-15-15-15-15-15-15-|-15----17----15----17----|
G|-14-14-14-14-14-14-14-14-|-14-14-14-14-14-14-14-14-| Guitar 3
D|-------------------------|-------------------------| Left Channel
A|-------------------------|-------------------------|
E|-------------------------|-------------------------|

F.P.--------------------------------------------|
E|-------------------------|-------------------------|
B|-15-15-15-15-15-15-15-15-|-15----17----15----17----|
G|-14-14-14-14-14-14-14-14-|-14-14-14-14-14-14-14-14-|
D|-------------------------|-------------------------|
A|-------------------------|-------------------------|
E|-------------------------|-------------------------|

F.P.--------------------------------------------|
E|-------------------------|-------------------------|
B|-15-15-15-15-15-15-15-15-|-15-15-15-15-15-15-15-15-|
G|-14-14-14-14-14-14-14-14-|-14-14-14-14-14-14-14-14-|
D|-------------------------|-------------------------|
A|-------------------------|-------------------------|
E|-------------------------|-------------------------|
|
| (15) (15) (15)
E|-------------------------|----10-------------------|
B|-13b~~~---13b~~~13b---13-|-13b15~~~~---------------|
G|-------------------------|-------------------------| Guitar 4
D|-------------------------|-------------------------| Right Channel
A|-------------------------|-------------------------|
E|-------------------------|-------------------------|
|
| F.P.------------------|
E|-------------------------|-15----14----10----12----|
B|-------------------------|-15-15-15-15-15-15-15-15-|
G|-------------------------|-------------------------| Guitar 5
D|-------------------------|-------------------------| Left Channel
A|-------------------------|-------------------------|
E|-------------------------|-------------------------|
|
|
E|-------------------------|----15----14----10-------|
B|-------------------------|-15-15-15-15-15-15-15-15-|
G|-------------------------|-------------------------|
D|-------------------------|-------------------------| Guitar 6
A|-------------------------|-------------------------| Left Channel
E|-------------------------|-------------------------| Response to Guitar 5

F.P.--------------------------------------------|
E|-------------------------|-------------------------|
B|-15-15-15-15-15-15-15-15-|-15----17----15----17----|
G|-14-14-14-14-14-14-14-14-|-14-14-14-14-14-14-14-14-|
D|-------------------------|-------------------------|
A|-------------------------|-------------------------|
E|-------------------------|-------------------------|
|
| (15) (15) (15)
E|-------------------------|----10-------------------|
B|-13b~~~---13b~~~13b---13-|-13b15~~~~---------------|
G|-------------------------|-------------------------|
D|-------------------------|-------------------------|
A|-------------------------|-------------------------|
E|-------------------------|-------------------------|

Verse 1:

P.M.------------------------| P.M.------------------------|
D5 D5
E|-----------------|-----------------|-----------------|-----------------|
B|-----------------|-----------------|-----------------|-----------------|
G|-7-7-7-----------|-----------------|-7-7-7-----------|-----------------|
D|-7-7-7-7-7-7-7-7-|-7-7-7-7-7-7-7-7-|-7-7-7-7-7-7-7-7-|-7-7-7-7-7-7-7-7-|
A|-5-5-5-5-5-5-5-5-|-5-5-5-5-5-5-5-5-|-5-5-5-5-5-5-5-5-|-5-5-5-5-5-5-5-5-|
E|-----------------|-----------------|-----------------|-----------------|
|
| P.M.------------| P.M.------------|
| D5 A G A5 D5 A G A5
E|-----------------|-----------------|-----------------|-----------------|
B|-----------------|-----------------|-----------------|-----------------|
G|-7-7-7-6---4---2-|-----2---2---2---|-7-7-7-6---4---2-|-----2---2---2---|
D|-7-7-7-7---5---2-|-0-0-0-0-0-0-0-0-|-7-7-7-7---5---2-|-0-0-0-0-0-0-0-0-|
A|-5-5-5-----------|-----------------|-5-5-5-----------|-----------------|
E|-----------------|-----------------|-----------------|-----------------|

P.M.------------------------| P.M.------------------------|
D5 D5
E|-----------------|-----------------|-----------------|-----------------|
B|-----------------|-----------------|-----------------|-----------------|
G|-7-7-7-----------|-----------------|-7-7-7-----------|-----------------|
D|-7-7-7-7-7-7-7-7-|-7-7-7-7-7-7-7-7-|-7-7-7-7-7-7-7-7-|-7-7-7-7-7-7-7-7-|
A|-5-5-5-5-5-5-5-5-|-5-5-5-5-5-5-5-5-|-5-5-5-5-5-5-5-5-|-5-5-5-5-5-5-5-5-|
E|-----------------|-----------------|-----------------|-----------------|
|
| P.M.------------|
| D5 A G A5 D5 A G A5
E|-----------------|-----------------|-----------------|-----------------|
B|-----------------|-----------------|-----------------|-----------------|
G|-7-7-7-6---4---2-|-----2---2---2---|-7-7-7-6---4---2-|-----2---2-2-2-2-|
D|-7-7-7-7---5---2-|-0-0-0-0-0-0-0-0-|-7-7-7-7---5---2-|-0-0-0-0-0-2-2-2-|
A|-5-5-5-----------|-----------------|-5-5-5-----------|-----------------|
E|-----------------|-----------------|-----------------|-----------------|

Pre Chorus 1:

G5
E|-3---------------|-----------------|-3---------------|-3---------------|
B|-3---------------|-----------------|-3---------------|-3---------------|
G|-0---------------|-----------------|-0---------------|-0---------------|
D|-0---------------|-----------------|-0---------------|-0---------------|
A|-x---------------|-----------------|-x---------------|-x---------------|
E|-3---------------|-----------------|-3---------------|-3---------------|
|
| G5
E|-----------------|-----------------|-----------------|-----------------|
B|-----------------|-----------------|-----------------|-----------------|
G|-0---------------|-----------------|-0---------------|-0---------------|
D|-0---------------|-----------------|-0---------------|-0---------------|
A|-x---------------|-----------------|-x---------------|-x---------------|
E|-3---------------|-----------------|-3---------------|-3---------------|

Chorus 1:

Angus and Malcolm (Rhythm):

P.M.-----------------| P.M.-----------------|
D5 D5
E|-----------------|-----------------|-----------------|-----------------|
B|-----------------|-----------------|-----------------|-----------------|
G|-7-7-7-6---4-----|-----------------|-7-7-7-6---4-----|-----------------|
D|-7-7-7-7---5-7-7-|-7-7-7-7-7-7-7-7-|-7-7-7-7---5-7-7-|-7-7-7-7-7-7-7-7-|
A|-------------5-5-|-5-5-5-5-5-5-5-5-|-------------5-5-|-5-5-5-5-5-5-5-5-|
E|-----------------|-----------------|-----------------|-----------------|
|
| P.M.------------|
| D5 A G A5 D5 A G A5
E|-----------------|-----------------|-----------------|-----------------|
B|-----------------|-----------------|-----------------|-----------------|
G|-7-7-7-6---4---2-|-----2---2---2---|-7-7-7-6---4---2-|-----2---2-2-2-2-|
D|-7-7-7-7---5---2-|-0-0-0-0-0-0-0-0-|-7-7-7-7---5---2-|-0-0-0-0-0-2-2-2-|
A|-5-5-5-----------|-----------------|-5-5-5-----------|-----------------|
E|-----------------|-----------------|-----------------|-----------------|


P.M.-----------------| G5 D5 G D
D5 D5
E|-----------------|-----------------|-------3---------|-----------------|
B|-----------------|-----------------|-3-3-3-3---3---3-|-3---------------|
G|-7-7-7-6---4-----|-----------------|-2-2-2-0---2---0-|-2---------------|
D|-7-7-7-7---5-7-7-|-7-7-7-7-7-7-7-7-|-0-0-0-0---0---0-|-0---------------|
A|-------------5-5-|-5-5-5-5-5-5-5-5-|-------x---------|-----------------|
E|-----------------|-----------------|-------3---------|-----------------|
|
| P.M.------------|
| D5 A G A5 D5 A G D5
E|-----------------|-----------------|-----------------|-----------------|
B|-----------------|-----------------|---------------3-|-3---------------|
G|-7-7-7-6---4---2-|-----2---2---2---|-7-7-7-6---4---2-|-2---------------|
D|-7-7-7-7---5---2-|-0-0-0-0-0-0-0-0-|-7-7-7-7---5---0-|-0---------------|
A|-5-5-5-----------|-----------------|-5-5-5-----------|-----------------|
E|-----------------|-----------------|-----------------|-----------------|

Angus (Overdub):

(15) (15) (15)
E|-------------------------|----10-------------------|
B|-13b~~~---13b~~~13b---13-|-13b15~~~~---------------|
G|-------------------------|-------------------------| x3
D|-------------------------|-------------------------|
A|-------------------------|-------------------------|
E|-------------------------|-------------------------|

Verse 2:

P.M.-----------------| P.M.-----------------|
D5 D5
E|-----------------|-----------------|-----------------|-----------------|
B|-----------------|-----------------|-----------------|-----------------|
G|-7-7-7-6---4-----|-----------------|-7-7-7-6---4-----|-----------------|
D|-7-7-7-7---5-7-7-|-7-7-7-7-7-7-7-7-|-7-7-7-7---5-7-7-|-7-7-7-7-7-7-7-7-|

A|-------------5-5-|-5-5-5-5-5-5-5-5-|-------------5-5-|-5-5-5-5-5-5-5-5-|
E|-----------------|-----------------|-----------------|-----------------|
|
| P.M.------------|
| D5 A G A5 D5 A G A5
E|-----------------|-----------------|-----------------|-----------------|
B|-----------------|-----------------|-----------------|-----------------|
G|-7-7-7-6---4---2-|-----2---2---2---|-7-7-7-6---4---2-|-----2---2---2---|
D|-7-7-7-7---5---2-|-0-0-0-0-0-0-0-0-|-7-7-7-7---5---2-|-0-0-0-0-0-0-0-0-|
A|-5-5-5-----------|-----------------|-5-5-5-----------|-----------------|
E|-----------------|-----------------|-----------------|-----------------|

P.M.-----------------| P.M.-----------------|
D5 D5
E|-----------------|-----------------|-----------------|-----------------|
B|-----------------|-----------------|-----------------|-----------------|
G|-7-7-7-6---4-----|-----------------|-7-7-7-6---4-----|-----------------|
D|-7-7-7-7---5-7-7-|-7-7-7-7-7-7-7-7-|-7-7-7-7---5-7-7-|-7-7-7-7-7-7-7-7-|
A|-------------5-5-|-5-5-5-5-5-5-5-5-|-------------5-5-|-5-5-5-5-5-5-5-5-|
E|-----------------|-----------------|-----------------|-----------------|
|
| P.M.------------|
| D5 A G A5 D5 A G A5
E|-----------------|-----------------|-----------------|-----------------|
B|-----------------|-----------------|-----------------|-----------------|
G|-7-7-7-6---4---2-|-----2---2---2---|-7-7-7-6---4---2-|-----2---2-2-2-2-|
D|-7-7-7-7---5---2-|-0-0-0-0-0-0-0-0-|-7-7-7-7---5---2-|-0-0-0-0-0-2-2-2-|
A|-5-5-5-----------|-----------------|-5-5-5-----------|-----------------|
E|-----------------|-----------------|-----------------|-----------------|

Pre Chorus 2:

G5
E|-3---------------|-----------------|-3---------------|-3---------------|
B|-3---------------|-----------------|-3---------------|-3---------------|
G|-0---------------|-----------------|-0---------------|-0---------------|
D|-0---------------|-----------------|-0---------------|-0---------------|
A|-x---------------|-----------------|-x---------------|-x---------------|
E|-3---------------|-----------------|-3---------------|-3---------------|
|
| G5
E|-----------------|-----------------|-----------------|-----------------|
B|-----------------|-----------------|-----------------|-----------------|
G|-0---------------|-----------------|-0---------------|-0---------------|
D|-0---------------|-----------------|-0---------------|-0---------------|
A|-x---------------|-----------------|-x---------------|-x---------------|
E|-3---------------|-----------------|-3---------------|-3---------------|


Chorus 2:

Angus and Malcolm (Rhythm):

P.M.-----------------| P.M.-----------------|
D5 D5
E|-----------------|-----------------|-----------------|-----------------|
B|-----------------|-----------------|-----------------|-----------------|
G|-7-7-7-6---4-----|-----------------|-7-7-7-6---4-----|-----------------|
D|-7-7-7-7---5-7-7-|-7-7-7-7-7-7-7-7-|-7-7-7-7---5-7-7-|-7-7-7-7-7-7-7-7-|
A|-------------5-5-|-5-5-5-5-5-5-5-5-|-------------5-5-|-5-5-5-5-5-5-5-5-|
E|-----------------|-----------------|-----------------|-----------------|
|
| P.M.------------|
| D5 A G A5 D5 A G A5
E|-----------------|-----------------|-----------------|-----------------|
B|-----------------|-----------------|-----------------|-----------------|
G|-7-7-7-6---4---2-|-----2---2---2---|-7-7-7-6---4---2-|-----2---2-2-2-2-|
D|-7-7-7-7---5---2-|-0-0-0-0-0-0-0-0-|-7-7-7-7---5---2-|-0-0-0-0-0-2-2-2-|
A|-5-5-5-----------|-----------------|-5-5-5-----------|-----------------|
E|-----------------|-----------------|-----------------|-----------------|


P.M.-----------------| P.M.-----------------|
D5 D5
E|-----------------|-----------------|-----------------|-----------------|
B|-----------------|-----------------|-----------------|-----------------|
G|-7-7-7-6---4-----|-----------------|-7-7-7-6---4-----|-----------------|
D|-7-7-7-7---5-7-7-|-7-7-7-7-7-7-7-7-|-7-7-7-7---5-7-7-|-7-7-7-7-7-7-7-7-|
A|-------------5-5-|-5-5-5-5-5-5-5-5-|-------------5-5-|-5-5-5-5-5-5-5-5-|
E|-----------------|-----------------|-----------------|-----------------|
|
| P.M.------------|
| D5 A G A5 D5 A G A5
E|-----------------|-----------------|-----------------|-----------------|
B|-----------------|-----------------|-----------------|-----------------|
G|-7-7-7-6---4---2-|-----2---2---2---|-7-7-7-6---4---2-|-----2---2-2-2-2-|
D|-7-7-7-7---5---2-|-0-0-0-0-0-0-0-0-|-7-7-7-7---5---2-|-0-0-0-0-0-2-2-2-|
A|-5-5-5-----------|-----------------|-5-5-5-----------|-----------------|
E|-----------------|-----------------|-----------------|-----------------|

Angus (Overdub):

Right Channel

(15) (15) (15)
E|-------------------------|----10-------------------|
B|-13b~~~---13b~~~13b---13-|-13b15~~~~---------------|
G|-------------------------|-------------------------|
D|-------------------------|-------------------------| Guitar 4
A|-------------------------|-------------------------| Right Channel
E|-------------------------|-------------------------|

Bridge:

Angus and Malcolm (Rhythm):

A5 B5
E|-----------------|-----------------|-----------------|-----------------|
B|-----------------|-----------------|-----------------|-----------------|
G|-2---------------|-----------------|-4---------------|-----------------|
D|-2---------------|-----------------|-4---------------|-----------------|
A|-0---------------|-----------------|-2---------------|-----------------|
E|-----------------|-----------------|-----------------|-----------------|
|
| A5 B5
E|-----------------|-----------------|-----------------|-----------------|
B|-----------------|-----------------|-----------------|-----------------|
G|-2---2---2---2---|-2---2---2---2---|-4---4---4---4---|-4---4---4---4---|
D|-2---2---2---2---|-2---2---2---2---|-4---4---4---4---|-4---4---4---4---|
A|-0---0---0---0---|-0---0---0---0---|-2---2---2---2---|-2---2---2---2---|
E|-----------------|-----------------|-----------------|-----------------|

A5 A5
E|-----------------|-----------------|-----------------|-----------------|
B|-----------------|-----------------|-----------------|-----------------|
G|-2---------------|-----------------|-2---------------|-----------------|
D|-2---------------|-----------------|-2---------------|-----------------|
A|-0---------------|-----------------|-0---------------|-----------------|
E|-----------------|-----------------|-----------------|-----------------|
|
| A5 A5
E|-----------------|-----------------|-----------------|-----------------|
B|-----------------|-----------------|-----------------|-----------------|
G|-2---2---2---2---|-2---2---2---2---|-2-------2-------|-2---2---2-2-2-2-|
D|-2---2---2---2---|-2---2---2---2---|-2-------2-------|-2---2---2-2-2-2-|
A|-0---0---0---0---|-0---0---0---0---|-0-------0-------|-0---0---0-0-0-0-|
E|-----------------|-----------------|-----------------|-----------------|

Angus (Overdub):


F.P.--------------------------------------------|
E|-12-12-10-12-12-12-10-12-|-12-12-12-12-12-12-10-12-|
B|-10-10-10-10-10-10-10-10-|-10-10-10-10-10-10-10-10-|
G|-------------------------|-------------------------|
D|-------------------------|-------------------------| Guitar 3
A|-------------------------|-------------------------| Left Channel
E|-------------------------|-------------------------|

F.P.--------------------------------------------|
E|-14-14-12-14-14-14-12-14-|-14-14-14-14-14-14-12-14-|
B|-10-10-10-10-10-10-10-10-|-10-10-10-10-10-10-10-10-|
G|-------------------------|-------------------------|
D|-------------------------|-------------------------|
A|-------------------------|-------------------------|
E|-------------------------|-------------------------|

F.P.--------------------------------------------|
E|-12-12-10-12-12-12-10-12-|-12-12-10-12-12-12-10-12-|
B|-10-10-10-10-10-10-10-10-|-10-10-10-10-10-10-10-10-|
G|-------------------------|-------------------------|
D|-------------------------|-------------------------|
A|-------------------------|-------------------------|
E|-------------------------|-------------------------|

F.P.--------------------------------------------|
E|-12-12-12-12-12-12-12-12-|-15-15-15-15-15-15-15-15-|
B|-10-10-10-10-10-10-10-10-|-10-10-10-10-10-10-10-10-|
G|-------------------------|-------------------------|
D|-------------------------|-------------------------|
A|-------------------------|-------------------------|
E|-------------------------|-------------------------|


Guitar Solo:

Angus (Solo):


E|---------------------------------|-------------------------------|
B|-----15-15-15--------15-15-15--|---------------13b15~~~~15~~~~-|
G|-----14-14-14--------14-14-14--|-/14-14-----------------------|
D|-/16--------------/16------------|-/16-16-----------------------|
A|---------------------------------|-------------------------------|
E|---------------------------------|-------------------------------|

T.P.------------------------|
E|---------------------------------|-------------------------------|
B|-----15-15-15--------15-15-15--|-13----------------------------|
G|-----14-14-14--------14-14-14--|-14----------------------------|
D|-/16--------------/16------------|-------------------------------|
A|---------------------------------|-------------------------------|
E|---------------------------------|-------------------------------|

T.P.--------------------------------|
E|-10-10----12-13---12-13-12-13----12-13-----|
B|-10-10----10-10---10-10-10-10----10-10-----|
G|-------------------------------------------|
D|-------------------------------------------|
A|-------------------------------------------|
E|-------------------------------------------|

T.P.-----------------|
E|------------------------------|
B|/15---12--/15---12--/17------|
G|/14---14--/14---14--/16------|
D|------------------------------|
A|------------------------------|
E|------------------------------|


E|----------10-------10----------|----------10-10-10-10-10--|
B|-------10-10-13b15-10-12-10----|-------10-10-10-10-10-10--|
G|-12b14----------------12-10b---|-12b14--------------------|
D|----------------------------12-|--------------------------|
A|-------------------------------|--------------------------|
E|-------------------------------|--------------------------|


E|----------------------------------------------10-10-|
B|----------10-10-------10-------10-------------------|
G|-12b14----------12b14----12b14----12b14-12b14-------|
D|----------------------------------------------------|
A|----------------------------------------------------|
E|----------------------------------------------------|


E|-------10----------|
B|-13b15-10-12-10----|
G|----------12-10----|
D|----------------12-|
A|-------------------|
E|-------------------|


Angus and Malcolm (Rhythm):

P.M.-----------------| P.M.-----------------|
D5 D5
E|-----------------|-----------------|-----------------|-----------------|
B|-----------------|-----------------|-----------------|-----------------|
G|-7-7-7-6---4-----|-----------------|-7-7-7-6---4-----|-----------------|
D|-7-7-7-7---5-7-7-|-7-7-7-7-7-7-7-7-|-7-7-7-7---5-7-7-|-7-7-7-7-7-7-7-7-|
A|-------------5-5-|-5-5-5-5-5-5-5-5-|-------------5-5-|-5-5-5-5-5-5-5-5-|
E|-----------------|-----------------|-----------------|-----------------|
|
| P.M.------------|
| D5 A G A5 D5 A G A5
E|-----------------|-----------------|-----------------|-----------------|
B|-----------------|-----------------|-----------------|-----------------|
G|-7-7-7-6---4---2-|-----2---2---2---|-7-7-7-6---4---2-|-----2---2---2---|
D|-7-7-7-7---5---2-|-0-0-0-0-0-0-0-0-|-7-7-7-7---5---2-|-0-0-0-0-0-0-0-0-|
A|-5-5-5-----------|-----------------|-5-5-5-----------|-----------------|
E|-----------------|-----------------|-----------------|-----------------|

G5
E|-3---------------|-----------------|
B|-3---------------|-----------------|
G|-0-----0-----0---|---0-----0---0---|
D|-0---0-0---0-0---|---0---0-0---0---|
A|-x---x-x---x-x---|---x---x-x---x---|
E|-3---3-3---3-3---|---3---3-3---3---|
| x2
| G5
E|-----------------|-----------------|
B|-----------------|-----------------|
G|-0-----0-----0---|---0-----0---0---|
D|-0-----0-----0---|---0-----0---0---|
A|-x-----x-----x---|---x-----x---x---|
E|-3-----3-----3---|---3-----3---3---|

P.M.-----------------| P.M.-----------------|
D5 D5
E|-----------------|-----------------|-----------------|-----------------|
B|-----------------|-----------------|-----------------|-----------------|
G|-7-7-7-6---4-----|-----------------|-7-7-7-6---4-----|-----------------|
D|-7-7-7-7---5-7-7-|-7-7-7-7-7-7-7-7-|-7-7-7-7---5-7-7-|-7-7-7-7-7-7-7-7-|
A|-------------5-5-|-5-5-5-5-5-5-5-5-|-------------5-5-|-5-5-5-5-5-5-5-5-|
E|-----------------|-----------------|-----------------|-----------------|
|
| P.M.------------|
| D5 A G A5 D5 A G A5
E|-----------------|-----------------|-----------------|-----------------|
B|-----------------|-----------------|-----------------|-----------------|
G|-7-7-7-6---4---2-|-----2---2---2---|-7-7-7-6---4---2-|-----2---2---2---|
D|-7-7-7-7---5---2-|-0-0-0-0-0-0-0-0-|-7-7-7-7---5---2-|-0-0-0-0-0-0-0-0-|
A|-5-5-5-----------|-----------------|-5-5-5-----------|-----------------|
E|-----------------|-----------------|-----------------|-----------------|

Bridge:

Angus and Malcolm (Rhythm):

A5 B5
E|-----------------|-----------------|-----------------|-----------------|
B|-----------------|-----------------|-----------------|-----------------|
G|-2---------------|-----------------|-4---------------|-----------------|
D|-2---------------|-----------------|-4---------------|-----------------|
A|-0---------------|-----------------|-2---------------|-----------------|
E|-----------------|-----------------|-----------------|-----------------|
|
| A5 B5
E|-----------------|-----------------|-----------------|-----------------|
B|-----------------|-----------------|-----------------|-----------------|
G|-2---2---2---2---|-2---2---2---2---|-4---4---4---4---|-4---4---4---4---|
D|-2---2---2---2---|-2---2---2---2---|-4---4---4---4---|-4---4---4---4---|
A|-0---0---0---0---|-0---0---0---0---|-2---2---2---2---|-2---2---2---2---|
E|-----------------|-----------------|-----------------|-----------------|

A5 A5
E|-----------------|-----------------|-----------------|-----------------|
B|-----------------|-----------------|-----------------|-----------------|
G|-2---------------|-----------------|-2---------------|-----------------|
D|-2---------------|-----------------|-2---------------|-----------------|
A|-0---------------|-----------------|-0---------------|-----------------|
E|-----------------|-----------------|-----------------|-----------------|
|
| A5 A5
E|-----------------|-----------------|-----------------|-----------------|
B|-----------------|-----------------|-----------------|-----------------|
G|-2---2---2---2---|-2---2---2---2---|-2-------2-------|-2---2---2-2-2-2-|
D|-2---2---2---2---|-2---2---2---2---|-2-------2-------|-2---2---2-2-2-2-|
A|-0---0---0---0---|-0---0---0---0---|-0-------0-------|-0---0---0-0-0-0-|
E|-----------------|-----------------|-----------------|-----------------|

D5
E|-----------------|-----------------|-----------------|-----------------|
B|-3---------------|-----------------|-----------------|-----------------|
G|-2---------------|-----------------|-----------------|-----------------|
D|-0---------------|-----------------|-----------------|-----------------|
A|-----------------|-----------------|-----------------|-----------------|
E|-----------------|-----------------|-----------------|-----------------|
|
| D5
E|-----------------|-----------------|-----------------|-----------------|
B|-3---------------|-----------------|-----------------|-----------------|
G|-2---------------|-----------------|-----------------|-----------------|
D|-0---------------|-----------------|-----------------|-----------------|
A|-----------------|-----------------|-----------------|-----------------|
E|-----------------|-----------------|-----------------|-----------------|


E|-----------------|-----------------|-----------------|-----------------|
B|-----------------|-----------------|-----------------|-----------------|
G|-----------------|-----------------|-----------------|-----------------|
D|-----------------|-----------------|-----------------|-----------------|
A|-----------------|-----------------|-----------------|-----------------|
E|-----------------|-----------------|-----------------|-----------------|
|
| D5 A G A5 D5 A G A5
E|-----------------|-----------------|-----------------|-----------------|
B|-----------------|-----------------|-----------------|-----------------|
G|-7-7-7-6---4---2-|-2---------------|-7-7-7-6---4---2-|-2---------------|
D|-7-7-7-7---5---2-|-2---------------|-7-7-7-7---5---2-|-2---------------|
A|-5-5-5-----------|-0---------------|-5-5-5-----------|-0---------------|
E|-----------------|-----------------|-----------------|-----------------|


E|-----------------|-----------------|-----------------|-----------------|
B|-----------------|-----------------|-----------------|-----------------|
G|-----------------|-----------------|-----------------|-----------------|
D|-----------------|-----------------|-----------------|-----------------|
A|-----------------|-----------------|-----------------|-----------------|
E|-----------------|-----------------|-----------------|-----------------|
|
| D5 A G A5 D5 A G A5
E|-----------------|-----------------|-----------------|-----------------|
B|-----------------|-----------------|-----------------|-----------------|
G|-7-7-7-6---4---2-|-2---------------|-7-7-7-6---4---2-|-2---------------|
D|-7-7-7-7---5---2-|-2---------------|-7-7-7-7---5---2-|-2---------------|
A|-5-5-5-----------|-0---------------|-5-5-5-----------|-0---------------|
E|-----------------|-----------------|-----------------|-----------------|

Bridge:


Angus (Overdubs):



F.P.--------------------------------------------|
E|-12-12-10-12-12-12-10-12-|-12-12-12-12-12-12-10-12-|
B|-10-10-10-10-10-10-10-10-|-10-10-10-10-10-10-10-10-|
G|-------------------------|-------------------------|
D|-------------------------|-------------------------| Guitar 3
A|-------------------------|-------------------------| Left Channel
E|-------------------------|-------------------------|

F.P.--------------------------------------------|
E|-14-14-12-14-14-14-12-14-|-14-14-12-14-14-14-12-14-|
B|-10-10-10-10-10-10-10-10-|-10-10-10-10-10-10-10-10-|
G|-------------------------|-------------------------|
D|-------------------------|-------------------------|
A|-------------------------|-------------------------|


E|-------------------------|-------------------------|

F.P.--------------------------------------------|
E|-12-12-10-12-12-12-10-12-|-12-12-10-12-12-12-10-12-|
B|-10-10-10-10-10-10-10-10-|-10-10-10-10-10-10-10-10-|
G|-------------------------|-------------------------|
D|-------------------------|-------------------------|
A|-------------------------|-------------------------|
E|-------------------------|-------------------------|

F.P.--------------------------------------------|
E|-12-12-12-12-12-12-12-12-|-15-15-15-15-15-15-15-15-|
B|-10-10-10-10-10-10-10-10-|-10-10-10-10-10-10-10-10-|
G|-------------------------|-------------------------|
D|-------------------------|-------------------------|
A|-------------------------|-------------------------|
E|-------------------------|-------------------------|


F.P.--------------------------------------------|
E|-14-14-14-14-14-14-14-12-|-12-12-12-10-10-10-10-10-|
B|-10-10-10-10-10-10-10-10-|-10-10-10-10-10-10-10-10-|
G|-------------------------|-------------------------|
D|-------------------------|-------------------------|
A|-------------------------|-------------------------|
E|-------------------------|-------------------------|

F.P.--------------------------------------------|
E|-12-12-10-10-10-10-10-10-|-10-10-12-12-10-10-12-12-|
B|-10-10-10-10-10-10-10-10-|-10-10-10-10-10-10-10-10-|
G|-------------------------|-------------------------|
D|-------------------------|-------------------------|
A|-------------------------|-------------------------|
E|-------------------------|-------------------------|

F.P.--------------------------------------------|
E|-10-10-12-12-12-12-12-12-|-15-15-15-15-15-15-12-14-|
B|-10-10-10-10-10-10-10-10-|-10-10-10-10-10-10-10-10-|
G|-------------------------|-------------------------|
D|-------------------------|-------------------------|
A|-------------------------|-------------------------|
E|-------------------------|-------------------------|

F.P.--------------------------------------------|
E|-10-10-10-10-10-10-10-10-|-10-10-12-12-10-10-12-12-|
B|-10-10-10-10-10-10-10-10-|-10-10-10-10-10-10-10-10-|
G|-------------------------|-------------------------|
D|-------------------------|-------------------------|
A|-------------------------|-------------------------|
E|-------------------------|-------------------------|

F.P.--------------------------------------------|
E|-10-10-12-12-12-12-12-12-|-15-15-15-15-15-15-12-14-|
B|-10-10-10-10-10-10-10-10-|-10-10-10-10-10-10-10-10-|
G|-------------------------|-------------------------|
D|-------------------------|-------------------------|
A|-------------------------|-------------------------|
E|-------------------------|-------------------------|

F.P.--------------------------------------------|
E|-10-10-10-10-10-10-10-10-|-10-10-12-12-10-10-12-12-|
B|-10-10-10-10-10-10-10-10-|-10-10-10-10-10-10-10-10-|
G|-------------------------|-------------------------|
D|-------------------------|-------------------------|
A|-------------------------|-------------------------|
E|-------------------------|-------------------------|
|
| (15) (15) (15)
E|-------------------------|----10-------------------|
B|-13b~~~---13b~~~13b---13-|-13b15~~~~---------------|
G|-------------------------|-------------------------|
D|-------------------------|-------------------------| Guitar 4
A|-------------------------|-------------------------| Right Channel
E|-------------------------|-------------------------|

Outro/Chorus:

P.M.------------------------| P.M.------------------------|
D5 D5
E|-----------------|-----------------|-----------------|-----------------|
B|-----------------|-----------------|-----------------|-----------------|
G|-7-7-7-----------|-----------------|-7-7-7-----------|-----------------|
D|-7-7-7-7-7-7-7-7-|-7-7-7-7-7-7-7-7-|-7-7-7-7-7-7-7-7-|-7-7-7-7-7-7-7-7-|
A|-5-5-5-5-5-5-5-5-|-5-5-5-5-5-5-5-5-|-5-5-5-5-5-5-5-5-|-5-5-5-5-5-5-5-5-|
E|-----------------|-----------------|-----------------|-----------------|
|
| P.M.------------| P.M.------------|
| D5 A G A5 D5 A G A5
E|-----------------|-----------------|-----------------|-----------------|
B|-----------------|-----------------|-----------------|-----------------|
G|-7-7-7-6---4---2-|-----2---2---2---|-7-7-7-6---4---2-|-----2---2---2---|
D|-7-7-7-7---5---2-|-0-0-0-0-0-0-0-0-|-7-7-7-7---5---2-|-0-0-0-0-0-0-0-0-|
A|-5-5-5-----------|-----------------|-5-5-5-----------|-----------------|
E|-----------------|-----------------|-----------------|-----------------|

P.M.------------------------| P.M.------------------------|
D5 D5
E|-----------------|-----------------|-----------------|-----------------|
B|-----------------|-----------------|-----------------|-----------------|
G|-7-7-7-----------|-----------------|-7-7-7-----------|-----------------|
D|-7-7-7-7-7-7-7-7-|-7-7-7-7-7-7-7-7-|-7-7-7-7-7-7-7-7-|-7-7-7-7-7-7-7-7-|
A|-5-5-5-5-5-5-5-5-|-5-5-5-5-5-5-5-5-|-5-5-5-5-5-5-5-5-|-5-5-5-5-5-5-5-5-|
E|-----------------|-----------------|-----------------|-----------------|
|
| P.M.------------|
| D5 A G A5 D5 A G A5
E|-----------------|-----------------|-----------------|-----------------|
B|-----------------|-----------------|-----------------|-----------------|
G|-7-7-7-6---4---2-|-----2---2---2---|-7-7-7-6---4---2-|-----2---2-2-2-2-|
D|-7-7-7-7---5---2-|-0-0-0-0-0-0-0-0-|-7-7-7-7---5---2-|-0-0-0-0-0-2-2-2-|
A|-5-5-5-----------|-----------------|-5-5-5-----------|-----------------|
E|-----------------|-----------------|-----------------|-----------------|


D5 A G D5
E|-----------------|-----------------|-----------------|-----------------|
B|---------------3-|-3---------------|-----------------|-----------------|
G|-7-7-7-6---4---0-|-2---------------|-----------------|-----------------|
D|-7-7-7-7---5---0-|-0---------------|-----------------|-----------------|
A|-5-5-5-----------|-----------------|-----------------|-----------------|
E|-----------------|-----------------|-----------------|-----------------|
|
| D5 A G D5
E|-----------------|-----------------|-----------------|-----------------|
B|---------------3-|-3---------------|-----------------|-----------------|
G|-7-7-7-6---4---0-|-2---------------|-----------------|-----------------|
D|-7-7-7-7---5---0-|-0---------------|-----------------|-----------------|
A|-5-5-5-----------|-----------------|-----------------|-----------------|
E|-----------------|-----------------|-----------------|-----------------|

Angus (Overdubs):

F.P.--------------------------------------------|
E|-12-12-12-12-10-10-10-10-|-10-10-12-12-10-10-12-10-|
B|-10-10-10-10-10-10-10-10-|-10-10-10-10-10-10-10-10-|
G|-------------------------|-------------------------|
D|-------------------------|-------------------------| Guitar 3
A|-------------------------|-------------------------| Left Channel
E|-------------------------|-------------------------|
|
| (15) (15) (15)
E|-------------------------|----10-------------------|
B|-13b~~~---13b~~~13b---13-|-13b15~~~~---------------|
G|-------------------------|-------------------------|
D|-------------------------|-------------------------| Guitar 4
A|-------------------------|-------------------------| Right Channel
E|-------------------------|-------------------------|

F.P.--------------------------------------------|
E|-14-14-14-14-14-14-14-14-|-17-17-17-15-15-12-14-14-|
B|-10-10-10-10-10-10-10-10-|-15-15-15-15-15-15-15-10-|
G|-------------------------|-------------------------|
D|-------------------------|-------------------------|
A|-------------------------|-------------------------|
E|-------------------------|-------------------------|
|
| (15) (15) (15)
E|-------------------------|----10-------------------|
B|-13b~~~---13b~~~13b---13-|-13b15~~~~---------------|
G|-------------------------|-------------------------|
D|-------------------------|-------------------------|
A|-------------------------|-------------------------|
E|-------------------------|-------------------------|

F.P.--------------------------------------------|
E|-10-10-10-10-10-10-10-10-|-10-10-12-12-10-10-12-10-|
B|-10-10-10-10-10-10-10-10-|-10-10-10-10-10-10-10-10-|
G|-------------------------|-------------------------|
D|-------------------------|-------------------------|
A|-------------------------|-------------------------|
E|-------------------------|-------------------------|
|
| (15) (15) (15)
E|-------------------------|----10-------------------|
B|-13b~~~---13b~~~13b---13-|-13b15~~~~---------------|
G|-------------------------|-------------------------|
D|-------------------------|-------------------------|
A|-------------------------|-------------------------|
E|-------------------------|-------------------------|

F.P.-------------------------------------------|
E|-14-14-14-14-14-14-14-14-|-14-14-12-12-10-10-12-12-|
B|-10-10-10-10-10-10-10-10-|-10-10-10-10-10-10-10-10-|
G|-------------------------|-------------------------|
D|-------------------------|-------------------------|
A|-------------------------|-------------------------|
E|-------------------------|-------------------------|
|
| (15) (15) (15)
E|-------------------------|----10-------------------|
B|-13b~~~---13b~~~13b---13-|-13b15~~~~---------------|
G|-------------------------|-------------------------|
D|-------------------------|-------------------------|
A|-------------------------|-------------------------|
E|-------------------------|-------------------------|

-----------------------------
|  акорди, навчання, відео  |
|     http://akords.org     |
-----------------------------

 (голосів: 1)
   Інші пісні:
  • Skies On Fire
  • This House Is On Fire
  • Squealer
  • Have A Drink 2
  • Rising Power
  •  
    Шановний відвідувач, Ви зайшли на сайт як незареєстрований користувач. Ми рекомендуємо Вам реєструватися або зайти на сайт під своїм ім'ям.

    Додавання коментаря

    Ім'я:*
    E-Mail:*
    Коментар:
    Введіть два слова, показані на зображенні: *
     
      

    BLIBL-створити сайт безкоштовно