Зробити стартовою  |  Додати в вибране
 
Пошук по сайту:  
  логін: пароль:  
    Реєстрація на сайті   Нагадати пароль?    

Видавництво Симфонія | Книжкова фабрика

akords.org » A » ABBA » Money Money Money (2 варіант)
Знайти необхідні акорди

ABBA - Money Money Money (2 варіант)  табулатура

Intro:
* . . . * . . . * . . . * . . .
|-0-0-0-0-0-0----0----------------1-------0-0------------>5------|
|-1-1-1-1-1-1---1-4-4-4-4-4-4----43---1---1-1------------5------|
|-------------2---3-3-3-3-3-3-3---0-------2-2-----7------<7------|
|-0-0-0-0-0-0-------------------------------------7--------------|
|-------------------------------------------------5--------------|
h

* . . . * . . .
|----0---0---0---0---0---0---0----|
|---1---1---1---1---1---1---1-----|
|--4---4---4---4---4---4---4------|
|-------------------------------2-|
|-0---0---0---0---0---0---0---0---|
|---------------------------------|


Verse
* . . . * . . . * . . . * . . .
|-----------------------------------------1-1---0----0---0---0----|
|(1---1---1---1---0---0---0)--------------3-3---1---1---1---1-----|
|---------------------------2-2-1---------1-1---2--4---4---4------|
2-2-3-3-2-2-3-3-2-2-3-3-2-2-----------2---0---2-----------------2-|
|-0---0---0---0-----------------------------------0---0---0---0---|
|-----------------4---4---4---4---0-0---0------(0)----------------|
h

* . . . * . . . * . . . * . . .
|-----------------------------------------1-1---0----0---0---0---0|
|(1---1---1---1---0---0---0)--------------3-3---1---1---1---1---1-|
|---------------------------2-2-1---------1-1---2--4---4---4---4--|
2-2-3-3-2-2-3-3-2-2-3-3-2-2-----------2---0---2-------------------|
|-0---0---0---0-----------------------------------0---0---0---0---|
|-----------------4---4---4---4---0-0---0-------0-----------------|
h

* . . . * . . . * . . . * . . .
|-----------------------------------------------------------------|
|-3-3---1-------1-0-0---1-----------3-3---1-1-----0-0---10--------|
|-4-4---2---2---2-1-1---2-----------3-3---2-2-----0-0-----2-----2-|
|-2-----2-------2-2-2---2-----------------------3-----------3-----|
|-0---0---0---0---0---0---0---------------------------------------|
|-----------------------------3---1-----1-----1---1---1---1---0---|
p

* . . . * . . . *
|---------------------------------0----------|
|---0-0------00------00-----1-1-0-0----------|
2-2-----2-2-----2-2-----2-2-------1----------|
|-0---0---0---0---1---1---1---1---2----------|
|---------------------------------2----------|
|---------------------------------0----------|

7/8 9/8
* . . . * . . . .
|-0-1---0-------0-1---0-----------|
|-0---3---1-3-0-0---3---1-3-0-1---|
|-1-----------------2---0---------|
|---------------------------3-----|
|---------------------------------|
|---------------------------------|


Chorus:
* . . . * . . . * . . . * . . .
|-----0-------0---------------------------0-0---------------------|
|-1-3-1---0-1---4-----4-------4-3-----3-1-1-1---1---------431-1---|
|-2-4---2-------4---2-4-2-4-5---2-----4-2-------2------------2--2-|
|-----------------------------------------------2-----------------|
|-0---------------2-----------------------3-3-----0---0---0---0---|
|---------------------------------0-------------------------------|
pp

* . . . * . . . * . . . * . . .
|-----0-------0---------------------------0-0-------------------1-|
|-1-3-1---0-1---4-----4-------4-3-----3-1-1-1---1---------431-----|
|-2-4---2-------4---2-4-2-4-5---2-----4-2-------2-------------2---|
|-----------------------------------------------2-----------------|
|-0---------------2-----------------------3-3-----0---0---0---0---|
|---------------------------------0-------------------------------|
pp

* . . . * . . . * . . . * . . .
|----(1)----31--0-----0---0-1---------1-0-1-0---------------------|
|-------------3---------3-------------2---2-----3---------4---3---|
|---------------------1---1----------(2---2)--2-----------5---4---|
|-0-------0---------2-0---2-------------------020---------3---2---|
|-----3-0-----3-0-------2-----020---0-2---3-----------------------|
|-----------------0--------------------------------------(1)--0---|
p h h h h

* . . . * . . .
|-----0-----0-------------0-0-----|
|-1-3-1-1-3-1---3---------1-1---1-|
|-2-4---2-4-----4-----4-2-1-1---2-|
|-------------010---------2-2---2-|
|-0-------------------------------|
|---------------------------------|

-----------------------------
|  акорди, навчання, відео  |
|     http://akords.org     |
-----------------------------

 (голосів: 0)
   Інші пісні:
  • Money 2
  • Money Money Money
  • Money
  • Деньги (Money)
  • Cant Buy Me Love 4
  •  
    Шановний відвідувач, Ви зайшли на сайт як незареєстрований користувач. Ми рекомендуємо Вам реєструватися або зайти на сайт під своїм ім'ям.

    Додавання коментаря

    Ім'я:*
    E-Mail:*
    Коментар:
    Введіть два слова, показані на зображенні: *
     
      

    BLIBL-створити сайт безкоштовно