Зробити стартовою  |  Додати в вибране
 
Пошук по сайту:  
  логін: пароль:  
    Реєстрація на сайті   Нагадати пароль?    

Видавництво Симфонія | Книжкова фабрика

akords.org » А » АукцЫон » Веселое место
Знайти необхідні акорди

АукцЫон - Веселое место  Табулатура

вступление:
A Dm A Dm A Dm A Dm
-|------6|5------|------6|5------|------6|5------|-------|-----|
-|----5--|--6----|----5--|-------|----5--|--6----|-------|-----|
-|--6----|----7--|--6----|-------|--6----|----7--|6-----6|7----|
-|7------|------8|7------|-------|7------|------7|7-----7|7----|
-|-------|-------|-------|-------|-------|-------|-------|-----|
-|-------|-------|-------|-------|-------|-------|-------|-----|

Зангизи умер!
Мало того, зарезался бритвой.
Какая грустная новость.
Какая печальная весть!
Оставил краткую записку:
"Бритва, на мое горло!"
Широкая железная осока
Перерезала воды его жизни, его уже нет...
Поводом было уничтожение
Рукописей злостными
Негодяями с большим подбородком
И шлепающей и чавкающей парой губ.

Зангизи (входя):
Зангизи жив,
Это была неумная шутка.

-----------------------------
|  акорди, навчання, відео  |
|     http://akords.org     |
-----------------------------

 (голосів: 0)
   Інші пісні:
  • Красивая
  • Рыба (2 варіант)
  • Рыба
  • Трезвость - норма жизни
  • Большое сердце
  •  
    Шановний відвідувач, Ви зайшли на сайт як незареєстрований користувач. Ми рекомендуємо Вам реєструватися або зайти на сайт під своїм ім'ям.

    Додавання коментаря

    Ім'я:*
    E-Mail:*
    Коментар:
    Введіть два слова, показані на зображенні: *
     
      

    BLIBL-створити сайт безкоштовно