Зробити стартовою  |  Додати в вибране
 
Пошук по сайту:  
  логін: пароль:  
    Реєстрація на сайті   Нагадати пароль?    

Видавництво Симфонія | Книжкова фабрика

akords.org » А » Ария » Ангельская пыль (2 варіант)
Знайти необхідні акорди

Ария - Ангельская пыль (2 варіант)  Табулатура

Вступление:

эл. гитара :
E|-------------------------------------------------------------|
B|-------------------------------------------------------------|
G|-(0)---------------------------------------------------------|
D|--5-----9~~-----------------------------------------7----9~~-|
A|--7----10~~---10---9---7---9~---7---5---7--9-10--------------|
E|-(0)---(0)---------------------------------------------------|

E|--------------------------------------------|
B|--------------------------------------------|
G|--------------------------------------------|
D|-7---------------------------------------0--| Повторить 2 р
A|--------10-----9-----10-----9-----7------5~-|
E|--------------------------------------------|

E|-------------------------------------------------------------|
B|-------------------------------------------------------------|
G|-(0)---------------------------------------------------------|
D|--5------9~~---9---7------7~--------------------------7---9~-|
A|--7-----10~~----------10---------10----9---7---9---10--------|
E|-(0)----(0)--------------------------------------------------|

E|-----------------------------------------------|
B|-----------------------------------------------|
G|-----------------------------------------------|
D|----7---------------------------------------0--|
A|-----------10-----9-----10-----9-----7------5~-|
E|-----------------------------------------------|

E|-------------------------------------------------------------|
B|-------------------------------------------------------------|
G|-(0)---------------------------------------------------------|
D|--5-----9~~-----------------------------------------7----9~~-|
A|--7----10~~----10---9---7---9~---7---5---7--9---10-----------|
E|-(0)---(0)---------------------------------------------------|

E|---------------------------------------------|
B|---------------------------------------------|
G|---------------------------------------------|
D|--7---------------------------------------0--|
A|---------10-----9-----10-----9-----7------5~-|
E|---------------------------------------------|

Основная часть Акустика

E|-------------------------------------------------------------|
B|-0-----0-----0----1-----1----1---0-----0-----0----1----1-----|
G|---0-----0-----0----0-----0----0---0-----0-----0----0----0---|
D|-----2-----2----------2-----2--------2------2--------------2-|
A|------------------3------------------------------------3-----|
E|-0-------------------------------------0---------------------|

Несколько раз
E|-------------------------------------------------------------|
B|-0-----0-----0----1-----1----1---0-----0-----0----1----1-----|
G|---0-----0-----0----0-----0----0---0-----0-----0----0----0---|
D|-----2-----2----------2-----2---------2-----2--------------2-|
A|------------------3------------------------------------3-----|
E|-0-------------------------------0---------------------------|

Em C Em С
E|-----------------------------------------------------------|
B|-0-----0-----0----1-----1----1---0-----0-----0----1----1---|
G|---0-----0-----0----0-----0----0---0-----0-----0----0----0-|
D|-----2-----2----------2-----2--------2-----2----------2----|
A|-----------------------------------------------------------|
E|-----------------------------------------------------------|
На краю обрыва, за которым вечность,
Ты стоишь один во власти странных грез

Em C G D
E|-------------------------------------------------------------|
B|-0-----0-----0----1-----1----1-----3-----3-----3----3----3---|
G|---0-----0-----0----0-----0----0-----0-----0-----0----2----2-|
D|-----2-----2----------2-----2----------0-----0----------0----|
A|-------------------------------------------------------------|
E|-----------------------------------3-------------------------|
И, простившись с миром, хочешь стать беспечным,
Поиграть с огнем нездешних гроз.

Наконец ты счастлив как никто на свете,
Ангельская пыль тебя уносит вверх.
Только ей подвластны и восторг, и ветер,
В жидких небесах звучит твой смех.

Припев.

Ангельская пыль
C D Em |_____________Это соло быстро_______________|
E|-0------2-2--------------------------------------------------|
B|-1-1----3-3--------------------------------------------------|
G|-0-0----2-2--0-----------------------------------------------|
D|-2-2----0-0--2-----------------------------------------------|
A|-3-3----0----2---/10--9-10--12-------------------------------|
E|-3------2----0---------------------12-----12--10--12--10-8-7-|

Это сон и быль
E|--0------2-2---------------------------------------------|
B|--1-1----3-3---------------------------------------------|
G|--0-0----2-2--0--------------------5---------------------|
D|--2-2----0-0--2-----4--4--4-----5--5---------------------|
A|--3-3----0----2-----2--2--2-----3--3---------------------|
E|--3------2----0--------------------------------3~------2-|

Безумец, беглец
Em C
E|---------0-------3^2--0-----------------0------3^2--0-------|
B|-----0------0--------------0---------1-----1--------------1-|
G|------------------------------------------------------------|
D|------------------------------------------------------------|
A|-----------------------------------3------------------------|
E|-0----------------------------------------------------------|

- дороги нет

G D
E|--------3--------/7^5---------------------------------------|
B|----3------3-------------8---7---7--------------------------|
G|---------------------------------7--------------------------|
D|---------------------------------5--0--4--5--7--5--4^5^4--0-|
A|------------------------------------------------------------|
E|-3----------------------------------------------------------|

Ты видишь неверный свет.

Em C
E|---------0-------3^2--0----------------0------3^2--0--------|
B|-----0------0--------------0--------1-----1---------------1-|
G|------------------------------------------------------------|
D|------------------------------------------------------------|
A|----------------------------------3-------------------------|
E|-0----------------------------------------------------------|

D
E|-------------------------------------------------------------|
B|-7-----------------------------------------------------------|
G|-7-7-7--7--7--7--7--7--7--7--7--7--7--7--7--7--7--7--7--7--7-|
D|-5-5-5--5--5--5--5--5--5--5--5--5--5--5--5--5--5--5--5--5--5-|
A|-------------------------------------------------------------|
E|-------------------------------------------------------------|

Am F
E|-------------------------------------------------------------|
B|------------------1^0----------------------------1^0---------|
G|---------2---------------2---0---------2---------------2---0-|
D|-----2------2-----------------------3-------3----------------|
A|-0-----------------------------------------------------------|
E|---------------------------------1---------------------------|

C G
E|-------------------------------------------------------------|
B|-----------------5^3-----------------------------------------|
G|--------5---------------5---4--------------------------------|
D|----5-------5--------------------5---0--4--5--7--5--4^5^4--0-|
A|-3-------------------------------5---------------------------|
E|---------------------------------3---------------------------|

Твой ангел зажег мираж огня.

Am F
E|-------------------------------------------------------------|
B|---------------1^0-------------------------------1^0---------|
G|--------2-----------2--0---------------2---------------2---0-|
D|-----2-----2------------------------3-------3----------------|
A|-0-----------------------------------------------------------|
E|---------------------------------1---------------------------|

G
E|----------------------------|
B|----------------------------|
G|----------------------------|
D|-5--------------------------|
A|-5---Та же штука что и с D--|
E|-3--3--3-33-3-3-3-3-3-3-3-3-|

Он хочет убить тебя...

После этого основную часть на акустике с маленькими басовыми
вставками типа учащенной ноты ми (пустая шестая), а еще:

E|-------------------------------------------------------------|
B|-0----0----0---1----1----1---0-----0----0---1----------------|
G|---0----0----0---0----0----0---0-----0----0---0--------------|
D|-----2----2--------2----2--------2-----2---------------------|
A|---------------3----------------------------3---/10~~-9-7----|
E|-0---------------------------------0----------------------10-|

Дальше сначала эту фигуру со словами и играть как куплет
(без вставок)

На краю обрыва песня неземная,
Музыка богов и голоса богинь.
Ты паришь над миром, но торговец раем
Вынет душу из тебя за героин.

Ты устал быть птицей и сорвался камнем.
Рухнул с высоты, спасаясь от судьбы.
На краю обрыва вновь летят на пламя
Сотни мотыльков-самоубийц.

После второго припева небольшой проигрыш (ногтем резко):

E|-------------------------------------------------------------|
B|-------------------------------------------------------------|
G|-------------------------------------------------------------|
D|---------------------5х-------------------7х-----------------|
A|---0-5-7х------7-------------------9-----------------7--5~~~-|
E|-0--------0-7--------------0---7--------------0---7----------|

Пару раз
E|-------------------------------------------------------------|
B|-------------------------------------------------------------|
G|-------------------------------------------------------------|
D|-----------9x------------10x-------------12x-----------------|
A|-0--7--10------0--7--10-------0--10--12-------0--10----------|
E|----------------------------------------------------12--10~~-|

Соло перед последним куплетом

E|-----12~~-7^8^7~~-----------7-8-7-12-7-8-7-10-7-8-7-12-7-8-7-|
B|-8----------------10^118~~-----------------------------------|
G|-9-----------------------------------------------------------|
D|-10----------------------------------------------------------|
A|-------------------------------------------------------------|
E|-------------------------------------------------------------|

E|----------------------------------------------------|
B|-10~~x-7^8^7---------7-5-4---8-7-5-10-8-7---12-10-8-|
G|---------------9~-7---------------------------------|
D|----------------------------------------------------|
A|----------------------------------------------------|
E|----------------------------------------------------|

E|--8-7-5---10-8-7--12-10-8--14-12-10---19/~~--19/~~--19/~~-|
B|----------------------------------------------------------|
G|----------------------------------------------------------|
D|----------------------------------------------------------|
A|----------------------------------------------------------|
E|----------------------------------------------------------|

-----------------------------
|  акорди, навчання, відео  |
|     http://akords.org     |
-----------------------------

 (голосів: 0)
   Інші пісні:
  • Ангельская пыль (3 варіант)
  • Ангельская пыль
  • Ангельская пыль (4 варіант)
  • Кони привередливые (3 варіант)
  • Беспечный ангел (3 варіант)
  •  
    Шановний відвідувач, Ви зайшли на сайт як незареєстрований користувач. Ми рекомендуємо Вам реєструватися або зайти на сайт під своїм ім'ям.

    Додавання коментаря

    Ім'я:*
    E-Mail:*
    Коментар:
    Введіть два слова, показані на зображенні: *
     
      

    BLIBL-створити сайт безкоштовно