Зробити стартовою  |  Додати в вибране
 
Пошук по сайту:  
  логін: пароль:  
    Реєстрація на сайті   Нагадати пароль?    

Видавництво Симфонія | Книжкова фабрика

akords.org » А » Ария » Беспечный ангел (2 варіант)
Знайти необхідні акорди

Ария - Беспечный ангел (2 варіант)  Табулатура

Песня играется в тональности Gb, и гитару надо перестроить:
опустить строй на пол тона (один лад).
Проигрыш:

G Em C
eb|----------------|---------------------|---------------------|
Bb|----------------|-----------0---------|---------1-----------|
Gb|*---------------|---------0-----0-----|-------0-------0---0-|
Db|*-------------0-|-------2---------0---|-----2-------2-------|
Ab|--------0---2---|-----2-------------2-|-3-------------3-----|
Eb|----3-----------|-0-------------------|---------------------|

G G

eb|--------------------------------||------------3------------||
Bb|----------3-----------------3---||---------3-----3---------||
Gb|-------0-------0----0-----0----*||-------0---------0------*||
Db|----0-------0-----------0------*||----0--------------0----*||
Ab|-----------------2--------------||-------------------------||
Eb|-3--------------------3---------||-3--------------------3--||

Куплет:

Этот парень был из тех...
G Em C
eb|-----------|-------------------|----------------------------|
Bb|-----------|----------0--------|--------1-------------------|
Gb|-----------|--------0---0------|------0-----0---0-----------|
Db|--------0--|------2-------0----|----2-----2-----------------|
Ab|----0-2----|----2-----------2--|--3-----------3-------------|
Eb|--3--------|--0----------------|----------------------------|

G
eb|------------------------------------------------------------|
Bb|------------3-----------------------3-----------------------|
Gb|--------0---------0-----0---------0-------------------------|
Db|----0----------0--------------0-----------------------------|
Ab|---------------------2--------------------------------------|
Eb|--3-----------------------3---------------------------------|

G Em C
eb|-----------|-------------------|----------------------------|
Bb|-----------|----------0--------|--------1-------------------|
Gb|-----------|--------0---0------|------0-----0---0-----------|
Db|--------0--|------2-------0----|----2-----2-----------------|
Ab|----0-2----|----2-----------2--|--3-----------3-------------|
Eb|--3--------|--0----------------|----------------------------|

D D
eb|--------2-3-2I3I2-------|--------2-0I2?0--------------------|
Bb|------3-----------3-----|------3---------3------------------|
Gb|----2---------------2---|----2-------------2----------------|
Db|--0---------------------|--0--------------------------------|
Ab|------------------------|-----------------------------------|
Eb|------------------------|-----------------------------------|

Am G D
eb|---------0-------|---------2-------|-------2-3-2Н3р2--------|
Bb|-------1---1-----|-------2---2-----|-----3-----------2------|
Gb|-----2-------2---|-----0-------0---|---2--------------------|
Db|---2-----------2-|---0-------------|-0----------------------|
Ab|-0---------------|-----------------|------------------------|
Eb|-----------------|-3-------------3-|------------------------|

Am D
eb|---------0-------|-------2-3-2Н3р2--------------------------|
Bb|-------1---1-----|-----3-----------3------------------------|
Gb|-----2-------2---|---2--------------------------------------|
Db|---2-----------2-|-0----------------------------------------|
Ab|-0---------------|------------------------------------------|
Eb|-----------------|------------------------------------------|

Em
eb|-----------------|---------0-------|-2--3-3-3-2-------------|
Bb|---------0-------|-------1---1-----|-3--3-3-3-3-------------|
Gb|-------0---0-----|-----0-------0---|-2--2-2-2-2-------------|
Db|-----2-------2---|---2-----------2-|-0--------0-------------|
Ab|---2-----------2-|-3---------------|------------------------|
Eb|-0---------------|-----------------|------------------------|

Версия 2 :
Повторение Версия 1. (Добавляются перкуссии.)

Chorus 1 :

Врубаем дисторшен + продолжют звучать аккорды акустики--------
Em C D C Н Em C D C D
eb|-----------------|----------------|---------|---------------|
Bb|-----------------|----------------|---------|---------------|
Gb|------5-----7----|-5----4---------|-5----7--|--5----7------|
Db|-2----5-----7----|-5----4----2----|-5----7--|--5----7------|
Ab|-2----3-----5----|-3----2----2----|-3----5--|--3----5------|
Eb|-0---------------|-----------0----|---------|---------------|

Чистый звук---------------------------------------------------
Am C G
eb|---------0-------|---------0-------|---------3--------------|
Bb|-------1---1-----|-------1---1-----|-------3---3------------|
Gb|-----2-------2---|-----0-------0---|-----0-------0----------|
Db|---2-------------|---2-------------|---0-----------0--------|
Ab|-0-------------0-|-3-------------3-|------------------------|
Eb|-----------------|-----------------|-3---------------3------|

Solo: ( Здесь играют две гитары одновременно )

G Em C G
eb|----------|-----------------|-------------------------------|
Bb|----------|---------0-------|-------1-----------------------|
Gb|*---------|-------0---0-----|-----0-----0---0---------------|
Db|*-------0-|-----2-------0---|---2-----2---------------------|
Ab|----0-2---|---2-----------2-|-3-----------3-----------------|
Eb|--3-------|-0---------------|-------------------------------|

/--------------- 1 ---------|/------------- 2 ----|
G
eb|---------------------------||---------3--------------------||
Bb|-------3---------------3---||-------3---3------------------||
Gb|-----0-----0---------0----*||-----0-------0---------------*||
Db|---0-----0-----0---0------*||---0-----------0-------------*||
Ab|-------------2-------------||------------------------------||
Eb|-3---------------3---------||-3---------------3------------||

eb|--------------|---------------------|-----------------------|
Bb|--------------|--3/5---5---5--53---|--3/5---5---53--3/5---|
Gb|*--42--0--2--|---------------------|-----------------------|
Db|*-------------|---------------------|-----------------------|
Ab|--------------|---------------------|-----------------------|
Eb|--------------|---------------------|-----------------------|

/------------------ 1 -----|/------------- 2 ----|
eb|---------------------------||-3~~~-------------------------||
Bb|-3-------------------------||------------------------------||
Gb|--------------------------*||-----------------------------*||
Db|--------------------------*||-----------------------------*||
Ab|---------------------------||------------------------------||
Eb|---------------------------||------------------------------||

Версия 3: (Как и в соло, здесь играют две гитары.
Вторая подыгрывает первой).

G Em C
eb|---------|-----------------|--------------------------------|
Bb|---------|---------0-------|-------1------------------------|
Gb|---------|-------0---0-----|-----0-----0---0----------------|
Db|-------0-|-----2-------0---|---2-----2----------------------|
Ab|---0-2---|---2-----------2-|-3-----------3------------------|
Eb|-3-------|-0---------------|--------------------------------|

G
eb|------------------------------------------------------------|
Bb|-----------3---------------------3--------------------------|
Gb|--------0-------0----0--------0-----------------------------|
Db|-----0-------0-------------0--------------------------------|
Ab|-------------------2----------------------------------------|
Eb|--3---------------------3-----------------------------------|

eb|------------------------------------------------------------|
Bb|-----------------------------------------------87----------|
Gb|---------------------------------------------------7~~~-----|
Db|------------------------------------------------------------|
Ab|------------------------------------------------------------|
Eb|------------------------------------------------------------|

G Em C
eb|---------|-----------------|--------------------------------|
Bb|---------|---------0-------|-------1------------------------|
Gb|---------|-------0---0-----|-----0-----0---0----------------|
Db|-------0-|-----2-------0---|---2-----2----------------------|
Ab|---0-2---|---2-----------2-|-3-----------3------------------|
Eb|-3-------|-0---------------|--------------------------------|

D D
eb|-------2-3-2Н3Н2-----|-------2-0Н2р0------------------------|
Bb|-----3-----------3---|-----3---------3----------------------|
Gb|---2---------------2-|---2-------------2--------------------|
Db|-0-------------------|-0------------------------------------|
Ab|---------------------|--------------------------------------|
Eb|---------------------|--------------------------------------|

eb|----------------------------------|-------------------------|
Bb|-------------------------5------7-|----------------------5~-|
Gb|---------------------4/5----5/7---|------------------87----|
Db|----------------------------------|-------------------------|
Ab|----------------------------------|-------------------------|
Eb|----------------------------------|-------------------------|

Am G D
eb|---------0-------|---------2-------|-------2-3-2Н3р2--------|
Bb|-------1---1-----|-------2---2-----|-----3-----------2------|
Gb|-----2-------2---|-----0-------0---|---2--------------------|
Db|---2-----------2-|---0-------------|-0----------------------|
Ab|-0---------------|-----------------|------------------------|
Eb|-----------------|-3-------------3-|------------------------|

eb|------------------------------------------------------------|
Bb|-------------------3/5--------------------------------------|
Gb|-----------------------5~~~---------------------------------|
Db|------------------------------------------------------------|
Ab|------------------------------------------------------------|
Eb|------------------------------------------------------------|

Em
eb|-----------------|---------0-------|-2--3-3---3-3---2-------|
Bb|---------0-------|-------1---1-----|-3--3-3---3-3---3-------|
Gb|-------0---0-----|-----0-------0---|-2--2-2---2-2---2-------|
Db|-----2-------2---|---2-----------2-|-0--------------0-------|
Ab|---2-----------2-|-3---------------|------------------------|
Eb|-0---------------|-----------------|------------------------|

eb|------------------------------------------------------------|
Bb|---------------------------------------------5-----7-----8--|
Gb|-----------------------------------------4/5---5/7---7/9----|
Db|------------------------------------------------------------|
Ab|------------------------------------------------------------|
Eb|------------------------------------------------------------|

Chorus 2 :

Врубаем дисторшен + продолжют звучать аккорды акустики------
Em C D Em Н Em C D C D
eb|-----------------|----------------|-----------|-------------|
Bb|-----------------|----------------|-----------|-------------|
Gb|------5-----7----|-3----4---------|-5----7----|-5----7-----|
Db|-2----5-----7----|-5----4----2----|-5----7----|-5----7-----|
Ab|-2----3-----5----|-3----2----2----|-3----5----|-3----5-----|
Eb|-0---------------|-----------0----|-----------|-------------|

Чистый звук---------------------------------------------------
Am C G
eb|---------0-------|---------0-------|---------3--------------|
Bb|-----1-----1-----|-----1-----1-----|-----3-----3------------|
Gb|-------2-----2---|-------0-----0---|-------0-----0----------|
Db|---2-------------|---2-------------|---0-----------0--------|
Ab|-0-------------0-|-3-------------3-|------------------------|
Eb|-----------------|-----------------|-3---------------3------|

G
|---------3-------|
|-----3-----3-----|
|-------0-----0---|
|---0-----------0-|
|-----------------|
|-3---------------|

Врубаем дисторшен + продолжют звучать аккорды акустики--------
Em C D Em Н Em C D C D
eb|-----------------|----------------|-----------|-------------|
Bb|-----------------|----------------|-----------|-------------|
Gb|------5-----7----|-3----4---------|-5----7----|-5----7-----|
Db|-2----5-----7----|-3----4----2----|-5----7----|-5----7-----|
Ab|-2----3-----5----|-2----2----2----|-3----5----|-3----5-----|
Eb|-0---------------|-----------0----|-----------|-------------|

Чистый звук---------------------------------------------------
Am C G
eb|---------0-------|---------0-------|---------3--------------|
Bb|-----1-----1-----|-----1-----1-----|-----3-----3------------|
Gb|-------2-----2---|-------0-----0---|-------0-----0----------|
Db|---2-------------|---2-------------|---0-----------0--------|
Ab|-0-------------0-|-3-------------3-|------------------------|
Eb|-----------------|-----------------|-3---------------3------|

Am C G
eb|-0---------0-------------2---2--2--2...2--------------------|
Bb|-1---------1------------2----2--2--2...2--------------------|
Gb|-2---------0-----------0-----0--0--0...0--------------------|
Db|-2---------2----------0------0--0--0...0--------------------|
Ab|-0---------3---------2-------2--2--2...2--------------------|
Eb|--------------------3--------3--3--3...3--------------------|

Куплет 1:
G Em
Этот парень был из тех,
C G
Кто просто любит жизнь.

G Em
Любит праздники и громкий смех,
C D
Пыль дорог и ветра свист.
Am G
Он был везде и всегда своим,
D Am
Влюблял в себя целый свет,
D Em
И гнал всегда свой байк, а не лимузин.
C D
Таких друзей больше нет.

Версия 2 :
И в гостиной при свечах
Он танцевал, как бог.
Но зато менялся на глазах,
Только вспомнит шум дорог.
Все, что имел, тут же тратил
И, за порог сделав шаг,
Мой друг давал команду братьям,
Вверх поднимая кулак.

Chorus 1 :
E5 C5 D5
Ты - летящий вдаль, вдаль ангел.
C5 Н5 E5
Ты - летящий вдаль, вдаль ангел.
C5 D5
Ты один только друг, друг на все времена,
C5 D5
Немного таких среди нас.
Am C G
Ты - летящий вдаль беспечный ангел.

Версия 3 :
Под гитарный жесткий рок,
Который так любил,
На Харлее он домчать нас мог
До небес и звезд любых.
Но он исчез и никто не знал
Куда теперь мчит его байк.
Один бродяга нам сказал,
Что он отправился в рай.

Chorus 2 :
Ты - летящий вдаль, вдаль ангел.
Ты - летящий вдаль, вдаль ангел.
Но стал союзником рая в ту ночь
Против тебя одного.

Ты - летящий вдаль, вдаль ангел.
Ты - летящий вдаль беспечный ангел.

Ты - летящий вдаль, вдаль ангел.
Ты - летящий вдаль, вдаль ангел.
Но стал союзником рая в ту ночь
Против тебя одного.


Ты - летящий вдаль, вдаль ангел.
Ты - летящий вдаль беспечный ангел.

-----------------------------
|  акорди, навчання, відео  |
|     http://akords.org     |
-----------------------------

 (голосів: 1)
   Інші пісні:
  • Беспечный ангел (3 варіант)
  • Беспечный ангел (4 вариант)
  • Беспечный ангел
  • Ты уйми мою печаль
  • Ангел (На живность и на падаль...)
  •  
    Шановний відвідувач, Ви зайшли на сайт як незареєстрований користувач. Ми рекомендуємо Вам реєструватися або зайти на сайт під своїм ім'ям.

    Додавання коментаря

    Ім'я:*
    E-Mail:*
    Коментар:
    Введіть два слова, показані на зображенні: *
     
      

    BLIBL-створити сайт безкоштовно