Зробити стартовою  |  Додати в вибране
 
Пошук по сайту:  
  логін: пароль:  
    Реєстрація на сайті   Нагадати пароль?    

Видавництво Симфонія | Книжкова фабрика

akords.org » А » Ария » Белый флаг (2 варіант)
Знайти необхідні акорди

Ария - Белый флаг (2 варіант)  Табулатура

Tuning: half-step down
(e to eb
H to Bb
G to Gb
D to Db
A to Ab
E to Eb)
Tempo: moderately fast (148 bpm)
INTRO:
(0:01 - 0:13)
RIFF 1: (*2 times)
Gtr.1
Eb|--------------------------------|---------------------------|
Hb|--------------------------------|---------------------------|
Gb|--------------------------------|---------------------5b5.5-|
Db|--------------------------------|------------------5--5b5.5-|
Ab|---------8----------7-----------|-8----------7-----3--------|
Eb|-3-3-3-3-6--3-3-3-3-5---3-3-3-3-|-6--3-3-3-3-5--3-----------|

Gtr.1
Eb|----------------------------------|---------------|
Hb|----------------------------------|---------------|
Gb|----------------------------------|---------------|
Db|----------------------------------|---------------|
Ab|----------8-----------7-----------|-6-------8---5-|
Eb|--3-3-3-3-6---3-3-3-3-5---3-3-3-3-|-4---3-3-6---3-|

(0:13 - 0:26) Repeat RIFF 1 for 2 more times
(on both Gtr.1 and Gtr.2)
(0:26 - 0:52)
VERSE 1:
Voice
Eb|-----------------------------------------------------|
Hb|------------------------------------3----------------|
Gb|--5-----------5-----------5--------------------------|
Db|-----------------------------------------------------|
Ab|-----------------------------------------------------|
Eb| Ros - kosh? vit - rin, --|

Gtr.1+Gtr.2
Eb|----------------------------|-------------------------------|
Hb|----------------------------|-------------------------------|
Gb|-5--------5-----------5-----|-5-----------5-----------5-----|
Db|-5--------5-----------5-----|-4-----------4-----------4-----|
Ab|-3--3--3--3---3---3---3---3-|-5---5---5---5---5---5---5---5-|
Eb|----------------------------|-------------------------------|

Voice
Eb|----------------------------------------------------------|
Hb|--4-----------4-----------4---------3-------4---3---------|
Gb|----------------------------------------------------------|
Db|----------------------------------------------------------|
Ab|----------------------------------------------------------|
Eb| svet yar - kih fo - na -rey. -|

Gtr.1+Gtr.2
Eb|-------------------------------|----------------------------|
Hb|-------------------------------|----------------------------|
Gb|-5-----------5-----------5-----|-5-----------5----5---------|
Db|-5-----------5-----------5-----|-4-----------4--------4-----|
Ab|-6---6---6---6---6---6---6---6-|-5---5---5---5------------5-|
Eb|-------------------------------|----------------------------|

Voice
Eb|----------------------------------------------------|
Hb|------------------------------3-----3---------------|
Gb|--5-----------5-----------5-------------------------|
Db|----------------------------------------------------|
Ab|----------------------------------------------------|
Eb| Ty zhil le - eg - ko, -|

Gtr.1+Gtr.2
Eb|----------------------------|-------------------------------|
Hb|----------------------------|-------------------------------|
Gb|-5-----------5---------5----|-5-----------5-----------5-----|
Db|-5-----------5---------5----|-4-----------4-----------4-----|
Ab|-3---3---3---3---3--3--3--3-|-5---5---5---5---5---5---5---5-|
Eb|----------------------------|-------------------------------|

Voice
Eb|--------------------------3---------3---------------------|
Hb|--4-----------4-------------------------------------------|
Gb|----------------------------------------------------------|
Db|----------------------------------------------------------|
Ab|----------------------------------------------------------|
Eb| zhil ne ta - yas?. -|

Gtr.1+Gtr.2
Eb|-------------------------------|----------------------------|
Hb|-------------------------------|----------------------------|
Gb|-5-----------5-----------5-----|-5--------5-----------5-----|
Db|-5-----------5-----------5-----|-5--------5-----------5-----|
Ab|-6---6---6---6---6---6---6---6-|-3--3--3--3---3---3---3---3-|
Eb|-------------------------------|----------------------------|
...
(0:53 - 1:19)
CHORUS: (Gtr.3 - clean sound)
Voice
Eb|--4----3------4-------4-----6-------3-----------------------|
Hb|---------------------------------------------4--------------|
Gb|------------------------------------------------------3-----|
Db|------------------------------------------------------------|
Ab|------------------------------------------------------------|
Eb| Be - lyy flag, krov? ush - la iz ven. -|

Gtr.3
Eb|--------------------------|------------------------|
Hb|--------------------------|------------------------|
Gb|--1--------0--------1-----|----0--------1--0--1--3-|
Db|-----3--------3--------3--|-------3----------------|
Ab|--------3--------3--------|-3--------3-------------|
Eb|--------------------------|------------------------|

Eb|-------------------------|-------------------------|
Hb|-------------------------|-------------------------|
Gb|-0--------0--------0-----|----0--------1--0--------|
Db|----1--------1--------1--|-------1-----------3--1--|
Ab|-------1--------1--------|-1--------1--------------|
Eb|-------------------------|-------------------------|

Bass
Gb|----------------|---------------|---------|-----------------|
Db|----------------|---------------|---------|-----------------|
Ab|-8------------8-|(8)-8-----6--8-|-6-----6-|(6)-6----------6-|
Eb|--------8-------|-------8-------|----6----|-------6---8-----|

Voice
Eb|--4--------3-------4-----4-----5-------6-------5--------6---|
Hb|------------------------------------------------------------|
Gb|------------------------------------------------------------|
Db|------------------------------------------------------------|
Ab|------------------------------------------------------------|
Eb| Lip - kiy strah ho - lod - ne - e l?da. -|

Gtr.3
Eb|--------------------------|-------------------------|
Hb|--------------------------|-------------------------|
Gb|--1--------0--------1-----|----0--------1-----2-----|
Db|-----3--------3--------3--|-------3--------3-----4--|
Ab|--------3--------3--------|-3--------3--------------|
Eb|--------------------------|-------------------------|

Eb|-------------------------|-------------------------|
Hb|-------------------------|-------------------------|
Gb|-3--------2--------3-----|----4--------5-----4-----|
Db|----5--------5--------5--|-------5--------0-----0--|
Ab|-------5--------5--------|-5--------5--------------|
Eb|-------------------------|-------------------------|

Bass
Gb|---------|---------------|------------|--------------------|
Db|---------|---------------|------------|--------------------|
Ab|-8-----8-|(8)-8-----8--9-|-10------10-|-10-----------------|
Eb|----8----|-------8-------|-----10-----|-----10----8-----10-|

Voice
Eb|--4-------3------4-----4--4--4--6----3----------------------|
Hb|----------------------------------------------4-------------|
Gb|-------------------------------------------------------3----|
Db|------------------------------------------------------------|
Ab|------------------------------------------------------------|
Eb| Sde - lay shag, go-ro-da sda -yu - tsya v plen. -|

Gtr.3
Eb|-------------------------|-------------------------|
Hb|-------------------------|-------------------------|
Gb|-1--------0--------1-----|----0--------1--0--1--3--|
Db|----3--------3--------3--|-------3-----------------|
Ab|-------3--------3--------|-3--------3--------------|
Eb|-------------------------|-------------------------|

Eb|-------------------------|-------------------------|
Hb|-------------------------|-------------------------|
Gb|-0--------0--------0-----|----0--------1--0--------|
Db|----1--------1--------1--|-------1-----------3--1--|
Ab|-------1--------1--------|-1--------1--------------|
Eb|-------------------------|-------------------------|


Bass
Gb|---------|---------------|---------|------------------------|
Db|---------|---------------|---------|------------------------|
Ab|-8-----8-|(8)-8-----6--8-|-6-----6-|(6)-6-------------6-sl/-|
Eb|----8----|-------8-------|----6----|-------6----8-----------|

Voice
Eb|--8--------6--------4-----6--------4--------6-----6-----7---|
Hb|------------------------------------------------------------|
Gb|------------------------------------------------------------|
Db|------------------------------------------------------------|
Ab|------------------------------------------------------------|
Eb| Bez bor? - by, bez og - nya, nav - seg -|

Gtr.3
Eb|-------------------------|-------------------------|
Hb|-------------------------|-------------------------|
Gb|-5--------3--------5-----|----3--------5-----6-----|
Db|----6--------6--------6--|-------6--------6-----7--|
Ab|-------6--------6--------|-6--------6--------------|
Eb|-------------------------|-------------------------|

Eb|-------------------------|-------------------------|
Hb|-------------------------|-------------------------|
Gb|-7--------5--------7-----|----5--------7-----8-----|
Db|----8--------8--------8--|-------8--------8-----9--|
Ab|-------8--------8--------|-8--------8--------------|
Eb|-------------------------|-------------------------|

Bass
Gb|-------------|----------------|------------|----------------|
Db|-------------|----------------|------------|----------------|
Ab|-/11------11-|-11------11--12-|-13------13-|-13------13--14-|
Eb|------11-----|-----11---------|-----13-----|-----13---------|
(1:19 - 1:45)
RIFF 2: (*2 times)

Voice
Eb||--8---------(6)----------------|
Hb||----------------(8)------------|
Gb||----------- ------------|
Db||-------- 2nd time only --------|
Ab||-------------------------------|
Eb|| -da! -|

Gtr.1+Gtr.2
Eb||------------------------------|----------------------------|
Hb||------------------------------|----------------------------|
Gb||------------------------------|-7---------7----------7-----|
Db||-10---------10---------10-----|-7---------7----------7-----|
Ab||-10---------10---------10-----|-8---------8----------8-----|
Eb||-8--8-8-8-8-8--8-8-8-8-8--8-8-|---8-8-8-8----8-8-8-8---8-8-|

Gtr.1+Gtr.2
na - vseg -
Eb|------------------------------|-----------------------------|
Hb|------------------------------|-----------------------------|
Gb|-8----------8----------8------|-7---------7---------7-------|
Db|-8----------8----------8------|-7---------7---------7-------|
Ab|-10---------10---------10-----|-8---------8---------8-------|
Eb|----8-8-8-8----8-8-8-8----8-8-|---8-8-8-8---8-8-8-8-----8-8-|

Gtr.1+Gtr.2
-da!
Eb|------------------------------|-----------------------------|
Hb|------------------------------|-----------------------------|
Gb|------------------------------|-7---------7---------7-------|
Db|-10---------10---------10-----|-7---------7---------7-------|
Ab|-10---------10---------10-----|-8---------8---------8-------|
Eb|-8--8-8-8-8-8--8-8-8-8-8--8-8-|---8-8-8-8---8-8-8-8-----8-8-|

Gtr.1+Gtr.2
na - vseg -
Eb|------------------------------|----------------------------||
Hb|------------------------------|----------------------------||
Gb|-8----------8----------8------|-9----------9----------9----||
Db|-8----------8----------8------|-10---------10---------10---||
Ab|-10---------10---------10-----|-10---------10---------10---||
Eb|----8-8-8-8----8-8-8-8----8-8-|----8-8-8-8----8-8-8-8----8-||
(1:46 - 1:51)

RIFF 3:
Gtr.1+Gtr.2
Eb|----------------------------------|-------------------|-----|
Hb|----------------------------------|-------------------|-----|
Gb|----------------------------------|-------------------|-----|
Db|----------------------------------|-------------------|-----|
Ab|----------8-----------7-----------|-6-------8---5-----|-(5)-|
Eb|--3-3-3-3-6---3-3-3-3-5---3-3-3-3-|-4---3-3-6---3-----|-(3)-|
(1:52 - 2:18) VERSE 2
(2:18 - 2:44) CHORUS
(2:45 - 3:11)

SOLO:
Lead
Eb|------------------|-----------------------------------------|
Hb|------------------|-----------------------------------------|
Gb|-11---------------|-----------------------------------------|
Db|-----13~~~~~~~~~~~~~~--------11---13---13b16-----13b16--13b-|
Ab|------------------|-----/13---------------------------------|
Eb|------------------|-----------------------------------------|

Rthm
Eb|-------------------------------|----------------------------|
Hb|-------------------------------|----------------------------|
Gb|-8-----------8-----------------|-------8--------6---------8-|
Db|-8-----------8-----------------|-------8--------6---------8-|
Ab|-6---6---6---6---6---6---6---6-|-6--6--6--------------------|
Eb|-------------------------------|----------------------------|

Lead
Eb|----------------------------------|-------------------------|
Hb|----------------------------------|-------------------------|
Gb|------------------------13b15~~~~rel13-p-11--10--11p10------|
Db|-b16.....rel13--11--13------------|-------------------13-13-|
Ab|----------------------------------|-------------------------|
Eb|----------------------------------|-------------------------|

Rthm
Eb|------------------------|-----------------------------------|
Hb|------------------------|-----------------------------------|
Gb|-4--------4-------------|-----------------------------------|
Db|-4--------4-------------|-----------------------------------|
Ab|-2--2--2--2--2--2--2--2-|-2---2---2---2----2----2----2----2-|
Eb|------------------------|-----------------------------------|

Lead
Eb|----------------11|14p11-13p11------------------------------|
Hb|-------------11---|----------14p11-12p11--------------------|
Gb|-11----11-11------|--------------------14-11-13-11----------|
Db|-11----11---------|------------------------------14-13-12-11|
Ab|----13------------|-----------------------------------------|
Eb|------------------|-----------------------------------------|

Rthm
Eb|-----------------------------|------------------------------|
Hb|-----------------------------|------------------------------|
Gb|--8------------8-------------|-----------8---------6------8-|
Db|--8------------8-------------|-----------8---------6------8-|
Ab|--6----6----6--6--6--6--6--6-|-6----6----6------------------|
Eb|-----------------------------|------------------------------|

Lead
Eb|------------------------------------------|
Hb|------------------------------------------|
Gb|------------------------------------------|
Db|------------------------------------------|
Ab|-14-13-12-11---------------------11-12-13-|
Eb|-----------15-14-13-12-11-12-13-14--------|

E|--------------------------------11-12-13-14-|
B|----------------------11-12-13-14-----------|
G|------------11-12-13-14---------------------|
D|--11-12-13-14-------------------------------|
A|-14-----------------------------------------|
E|--------------------------------------------|

Rthm
Eb|------------------------|-----------------------------------|
Hb|------------------------|-----------------------------------|
Gb|-4--------4-------------|-----------------------------------|
Db|-4--------4-------------|-----------------------------------|
Ab|-2--2--2--2--2--2--2--2-|-2---2---2---2----2----2----2----2-|
Eb|------------------------|-----------------------------------|

Lead
Eb|-14p13p12p11-13-11-11-11-14p13p12p11-13-11-11-11-|
Hb|-------------------------------------------------|
Gb|-------------------------------------------------|
Db|-------------------------------------------------|
Ab|-------------------------------------------------|
Eb|-------------------------------------------------|

Eb|-14p13p12p11-13-11-11-11-14p13p12p11-13-11-11-11-|
Hb|-------------------------------------------------|
Gb|-------------------------------------------------|
Db|-------------------------------------------------|
Ab|-------------------------------------------------|
Eb|-------------------------------------------------|

Rthm
Eb|--------------------------|---------------------------------|
Hb|--------------------------|---------------------------------|
Gb|--------------------------|---------------------------------|
Db|-6--------6---------------|-----------6---------4-----------|
Ab|-6--------6---------------|-----------6---------4---------6-|
Eb|-4--4--4--4--4--4--4----4-|-4----4----4-------------------6-|

Lead
Eb|----------------------11----------------|
Hb|--14b16-----------------14-11-11-12-11--|
Gb|-------------------------------------13-|
Db|----------------------------------------|
Ab|----------------------------------------|
Eb|----------------------------------------|

Eb|--------------------------------------10-11-13-11-|
Hb|-11-----------------------------11-12-------------|
Gb|----13-11-----------------11-11-------------------|
Db|----------13-12-11-12-13--------------------------|
Ab|--------------------------------------------------|
Eb|--------------------------------------------------|

Rthm
Eb|----------------------------|-------------------------------|
Hb|----------------------------|-------------------------------|
Gb|-8----------8---------------|-------------------------------|
Db|-8----------8---------------|-------------------------------|
Ab|-6--6---6---6--6---6---6--6-|-6---6---6---6---6---6---6---6-|
Eb|----------------------------|-------------------------------|

Lead
Eb|-14b16--------14---11-------------|-------------------------|
Hb|-----------------------14--12--11-|-------------------------|
Gb|----------------------------------|-13---11---10~~~~~~~~~~-|
Db|----------------------------------|-------------------------|
Ab|----------------------------------|-------------------------|
Eb|----------------------------------|-------------------------|

Rthm
Eb|-------------------------------|----------------------------|
Hb|-------------------------------|----------------------------|
Gb|-------------------------------|----------------------------|
Db|-6-----------6-----------------|---------6-------4----------|
Ab|-6-----------6-----------------|---------6-------4--------6-|
Eb|-4---4---4---4---4---4---4---4-|-4---4---4----------------6-|

Lead
Eb|-13p10-10-14p11-11-14p11-11-15p12-12-15p12-16p13-|
Hb|-------------------------------------------------|
Gb|-------------------------------------------------|
Db|-------------------------------------------------|
Ab|-------------------------------------------------|
Eb|-------------------------------------------------|

Eb|-13-16p13-13-17p14-14-17p14-14-18p15-15-19p16-16-19--|
Hb|------------------------------------------------------|
Gb|------------------------------------------------------|
Db|------------------------------------------------------|
Ab|------------------------------------------------------|
Eb|------------------------------------------------------|

Rthm
Eb|----------------------------|-------------------------------|
Hb|----------------------------|-------------------------------|
Gb|-8----------8---------------|-------------------------------|
Db|-8----------8---------------|-------------------------------|
Ab|-6--6---6---6--6---6---6--6-|-6---6---6---6---6---6---6---6-|
Eb|----------------------------|-------------------------------|
(3:11 - 3:37)

RIFF 4:
Gtr.1
Eb||----------------------------------------------|
Hb||-10p7p0-0--0--10p7p0-0--0-14p10-0-0-14p10-0-0-|
Gb||----------------------------------------------|
Db||----------------------------------------------|
Ab||----------------------------------------------|
Eb||----------------------------------------------|

Eb|-------------------------------------------|
Hb|-12p9--0--0-12p9--0--0-15p12-0-0-15p12-0-0-|
Gb|-------------------------------------------|
Db|-------------------------------------------|
Ab|-------------------------------------------|
Eb|-------------------------------------------|

Gtr.2
Eb||---------------------------------------|
Hb||-7--0--0--4-h7--0--0--7h10--0--0--7h10-|
Gb||---------------------------------------|
Db||---------------------------------------|
Ab||---------------------------------------|
Eb||---------------------------------------|

Eb|----------------------------------------------------------|
Hb|-0--0--5-h-9--0--0--5-h9--0--0--9h12--0--0--9h12--0--0-7h-|
Gb|----------------------------------------------------------|
Db|----------------------------------------------------------|
Ab|----------------------------------------------------------|
Eb|----------------------------------------------------------|

Bass
Gb||---------------------------|-------------------------------|
Db||---------------------------|-------------------------------|
Ab||-2---2---2---2--2--2--2--2-|-4---4---4---4---4---4---4---4-|
Eb||---------------------------|-------------------------------|

Gtr.1
Eb|-----------------------------------------|
Hb|-14p10-0-0-14p10-0-0-14p10-0-0-14p10-0-0-|
Gb|-----------------------------------------|
Db|-----------------------------------------|
Ab|-----------------------------------------|
Eb|-----------------------------------------|

Eb|---------------------------------------------||
Hb|-14p10-0-9h12p9--0--7h10p7--0--5-h9-p5--0--0-||
Gb|---------------------------------------------||
Db|---------------------------------------------||
Ab|---------------------------------------------||
Eb|---------------------------------------------||

Gtr.2
Eb|----------------------------------------|
Hb|h10--0--0--7h10--0--0--7h10--0--0--7h10-|
Gb|----------------------------------------|
Db|----------------------------------------|
Ab|----------------------------------------|
Eb|----------------------------------------|

Eb|--------------------------------------------------------||
Hb|-0--0--7h10-0-0--5-h9--0--0--4-h7--0--0--2-h5--0--0--4h-||
Gb|--------------------------------------------------------||
Db|--------------------------------------------------------||
Ab|--------------------------------------------------------||
Eb|--------------------------------------------------------||

Bass
Gb|---------------------------|-------------------------------||
Db|---------------------------|-------------------------------||
Ab|---------------------------|-------------------------------||
Eb|-2--2--2--2--2---2---2---2-|-2---2---2---2---2---2---2---2-||

Gtr.1
Eb|----------------------------------------------|
Hb|-10p7p0-0--0--10p7p0-0--0-14p10-0-0-14p10-0-0-|
Gb|----------------------------------------------|
Db|----------------------------------------------|
Ab|----------------------------------------------|
Eb|----------------------------------------------|

Eb|-------------------------------------------|
Hb|-12p9--0--0-12p9--0--0-15p12-0-0-15p12-0-0-|
Gb|-------------------------------------------|
Db|-------------------------------------------|
Ab|-------------------------------------------|
Eb|-------------------------------------------|

Gtr.2
Eb|------------------------------------------|
Hb|h7--0--0--4-h7--0--0--7h10--0--0--7h10--0-|
Gb|------------------------------------------|
Db|------------------------------------------|
Ab|------------------------------------------|
Eb|------------------------------------------|

Eb|-------------------------------------------------------|
Hb|-0--5-h-9--0--0--5-h9--0--0--9h12--0--0--9h12--0--0-7h-|
Gb|-------------------------------------------------------|
Db|-------------------------------------------------------|
Ab|-------------------------------------------------------|
Eb|-------------------------------------------------------|

Bass
Gb|------------------------|-----------------------------------|
Db|------------------------|-----------------------------------|
Ab|-2--2--2--2--2--2--2--2-|-4---4---4---4----4----4----4----4-|
Eb|------------------------|-----------------------------------|

Gtr.1
Eb|-----------------------------------------|
Hb|-14p10-0-0-14p10-0-0-17p14-0-0-17p14-0-0-|
Gb|-----------------------------------------|
Db|-----------------------------------------|
Ab|-----------------------------------------|
Eb|-----------------------------------------|

Eb|-----------------------------------------|
Hb|-15p12-0-0-15p12-0-0-19p15-0-0-19p15-0-0-|
Gb|-----------------------------------------|
Db|-----------------------------------------|
Ab|-----------------------------------------|
Eb|-----------------------------------------|

Gtr.2
Eb|-------------------------------------------|
Hb|h10--0--0-7h10-0-0-10h14-0-0-10h14-0--0--9-|
Gb|-------------------------------------------|
Db|-------------------------------------------|
Ab|-------------------------------------------|
Eb|-------------------------------------------|

Eb|--------------------------------------------|
Hb|h12--0--0-9h12-0-0-12h15-0-0-12h15-0--0--9h-|
Gb|--------------------------------------------|
Db|--------------------------------------------|
Ab|--------------------------------------------|
Eb|--------------------------------------------|

Bass
Gb|------------------------|-----------------------------------|
Db|------------------------|-----------------------------------|
Ab|-5--5--5--5--5--5--5--5-|-7---7---7---7----7----7----7----7-|
Eb|------------------------|-----------------------------------|

Gtr.1
Eb|-----------------------------------------|
Hb|-15p12-0-0-15p12-0-0-19p15-0-0-19p15-0-0-|
Gb|-----------------------------------------|
Db|-----------------------------------------|
Ab|-----------------------------------------|
Eb|-----------------------------------------|

Eb|-----------------------------------------|
Hb|-17p14-0-0-17p14-0-0-21p17-0-0-21p17-0-0-|
Gb|-----------------------------------------|
Db|-----------------------------------------|
Ab|-----------------------------------------|
Eb|-----------------------------------------|

Gtr.2
Eb|------------------------------------------|
Hb|h12--0--0-9h12-0-0-12h15-0-0-12h15-0-0-10-|
Gb|------------------------------------------|
Db|------------------------------------------|
Ab|------------------------------------------|
Eb|------------------------------------------|

Eb|--------------------------------------|
Hb|h14-0-0-10h14-0-0-14h17-0-0-14h17-0-0-|
Gb|--------------------------------------|
Db|--------------------------------------|
Ab|--------------------------------------|
Eb|--------------------------------------|

Bass
Gb|----------------------------|-------------------------------|
Db|----------------------------|-------------------------------|
Ab|-5--5--5--5---5---5---5---5-|-7---7---7---7---7---7---7---7-|
Eb|----------------------------|-------------------------------|

Gtr.1
Eb|--------------------|-18-------------17-------------16------|
Hb|-19-----------------|--------17-------------16-----------15-|
Gb|--------------------|---------------------------------------|
Db|--------------------|---------------------------------------|
Ab|--------------------|---------------------------------------|
Eb|--------------------|---------------------------------------|

Gtr.2
Eb|-------------------------|----------------20----------------|
Hb|-20b22-------------------|-20----------------------------19-|
Gb|-------------------------|----------------------------------|
Db|-------------------------|----------------------------------|
Ab|-------------------------|----------------------------------|
Eb|-------------------------|----------------------------------|

Bass
Gb|--------------------------|---------------------------------|
Db|--------------------------|---------------------------------|
Ab|-9-------------8--------7-|-(7)--6--------------5---------4-|
Eb|--------------------------|---------------------------------|
(3:38 - 3:41)

RIFF 5:
Gtr.1+Gtr.2
Eb|----------------------------------|----|
Hb|----------------------------------|----|
Gb|----------8-----------8-----------|-8--|
Db|----------8-----------8-----------|-8--|
Ab|----------10----------10----------|-10-|
Eb|--8-8-8-8-----8-8-8-8-----8-8-8-8-|----|
(3:41 - 4:07) CHORUS
(4:08 - 4:34) Repeat Riff 2
(4:34 - 4:39) Repeat Riff 3

-----------------------------
|  акорди, навчання, відео  |
|     http://akords.org     |
-----------------------------

 (голосів: 0)
   Інші пісні:
  • Lost In The Twilight Hall
  • Герой асфальта (3 варіант)
  • Show Business
  • Paranoid
  • 74 Jailbreak
  •  
    Шановний відвідувач, Ви зайшли на сайт як незареєстрований користувач. Ми рекомендуємо Вам реєструватися або зайти на сайт під своїм ім'ям.

    Додавання коментаря

    Ім'я:*
    E-Mail:*
    Коментар:
    Введіть два слова, показані на зображенні: *
     
      

    BLIBL-створити сайт безкоштовно