Зробити стартовою  |  Додати в вибране
 
Пошук по сайту:  
  логін: пароль:  
    Реєстрація на сайті   Нагадати пароль?    

Видавництво Симфонія | Книжкова фабрика

akords.org » А » Ария » Без тебя (2 варіант)
Знайти необхідні акорди

Ария - Без тебя (2 варіант)  Акорди

E|-1-0-1-0-----------1-0-1-0-----------|
B|---------3-3---------------3-3-5-5-6-|
G|-------------3-3-2-------------------|
D|-0-0-0-0-----------0-0-0-0-----------|
A|-------------------------------------|
E|-------------------------------------|

Dm C A# Gm A7
Снова брошен в окна лунный свет,
Dm C Gm C Dm DmCA#GmA7 DmCA#GmA7
Дом мой сонный серебром одет.

Лунной кисти не достичь глубин-
Эту бездну знаю я один.

Припев:
0-0-1-3-1-0-0-1-3-1-0-0-1-3-4-4-6-4-p3-
D Gm
Всё, всё как вчера,
D Gm
Всё, всё как вчера,
D A#
Всё, всё как вчера,
Fm A A7
Но без тебя...

Ревность, жалость словно заодно,
Птицей скорби падаю на дно.

-----------------------------
|  акорди, навчання, відео  |
|     http://akords.org     |
-----------------------------

 (голосів: 0)
   Інші пісні:
  • Без Тебя
  • Без тебя (3 варіант)
  • Без тебя
  • Ещё вчера
  • Вчера
  •  
    Шановний відвідувач, Ви зайшли на сайт як незареєстрований користувач. Ми рекомендуємо Вам реєструватися або зайти на сайт під своїм ім'ям.

    Додавання коментаря

    Ім'я:*
    E-Mail:*
    Коментар:
    Введіть два слова, показані на зображенні: *
     
      

    BLIBL-створити сайт безкоштовно