Зробити стартовою  |  Додати в вибране
 
Пошук по сайту:  
  логін: пароль:  
    Реєстрація на сайті   Нагадати пароль?    

Видавництво Симфонія | Книжкова фабрика

akords.org » А » Ария » Беги за солнцем
Знайти необхідні акорди

Ария - Беги за солнцем  Акорди

E|------0-------2------0-------|------0-------2-------0--------|
B|----0---0-------0------0-----|----0---0-------0-------0------|
G|--0-------0-------0------0---|--0-------0-------0-------0----|
D|------------2-------2------2-|------------2-------2-------2--|
A|-----------------------------|-------------------------------|
E|-0------------0------0-------|-0------------0-------0--------|

Em
В воздухе пахнет бедой
C7
Целых две тысячи лет,
Am
Жизнь так жестока
B7 Em
На этой проклятой земле...

Ветер в твоих волосах
C7
Тот же, что вечность назад,
Am
Время застыло,
B7 Em
Луна и солнце стали в ряд...

Припев:
D C7
Улететь бы птицей, прочь от проклятой земли,
C C7 B7
С небом чистым слиться - вот о чем мечтаешь ты...

Em
Беги, беги за солнцем,
C
Сбивая ноги в кровь
Am7
Беги, беги, не бойся
B7
Играть судьбою вновь и вновь.
Em
Лети, лети за солнцем
C
K безумству высоты.
Am
Лети, лети, не бойся,
B7 Em/Bb Em/А Em/G
Так можешь сделать только ты...


Мужество есть лишь у тех,
Кто ощутил сердцем страх
Кто смотрит в пропасть,
Но смотрит с гордостью в глазах


С белым пером в волосах,
Словно языческий бог,
Ты прыгнул в небо,
В гремящий грозами поток.

Припев.

D C/А
Ты упал со стоном, опаленный высотой,
D C7 B7
На земле рожденный, снова должен стать землей...

Припев.

-----------------------------
|  акорди, навчання, відео  |
|     http://akords.org     |
-----------------------------

 (голосів: 0)
   Інші пісні:
  • Беги
  • Ночь в июле
  • Лепесток (Никто не хочет войны)
  • Летчик
  • Лети, Мой Ангел, Лети (2 варіант)
  •  
    Шановний відвідувач, Ви зайшли на сайт як незареєстрований користувач. Ми рекомендуємо Вам реєструватися або зайти на сайт під своїм ім'ям.

    Додавання коментаря

    Ім'я:*
    E-Mail:*
    Коментар:
    Введіть два слова, показані на зображенні: *
     
      

    BLIBL-створити сайт безкоштовно