|  
 
:  
  : :  
      ?    

  |

akords.org » » »

-  

--Gm--
:Gm|D7/A|D7|Gm
Gm
,,,
D7
,

Gm
.
,,,
,
-
.
F

EbGmD7Gm
.
F
,
EbCmGm
ߠ,
Cm/AD7
.
:
GmD7/AD7Gm
,
D7/AD7Gm
.
D7/AD7Gm
,
D7/AD7Gm
,.
D7/AD7Gm
,.
--Am--
:Am|E7/H|E7|Am
Am
,,,
E7
,
,,
Am
.
,,,
,

.
G

FAmE7Am
.
G
,
FDmAm
ߠ,
Dm/HE7
.
:
AmE7/HE7Am
,
E7/HE7Am
.
E7/HE7Am
,
E7/HE7Am
,.
E7/HE7A/C#
,.
:DmA/C#|A/C#|E7/HA/C#|A/C#Dm
DmA/C#E7/HA/C#
,,
DmA/C#Hm7
,?

E7/HE7Am
(,.)
:
---Gm-D7-F--Eb-Cm-Am-E7-G--Dm-A--Hm7
1--3--2--1--3--3--0--0--3--1--0--2--
2--3--1--1--4--4--1--3--0--3--2--3--
3--3--2--2--3--5--2--1--0--2--2--2--
4--5--0--3--5--5--2--2--0--0--2--4--
5--5--0--3--6--3--0--2--2--0--0--2--
6--3--x--1--3--3--0--0--3--x--0--2--

-----------------------------
|  , ,   |
|     http://akords.org     |
-----------------------------

 (: 0)
    :
  • , ,
  •  
    , . '.

    ':*
    E-Mail:*
    :
    , : *
     
      

    BLIBL-