Зробити стартовою  |  Додати в вибране
 
Пошук по сайту:  
  логін: пароль:  
    Реєстрація на сайті   Нагадати пароль?    

Видавництво Симфонія | Книжкова фабрика

akords.org » А » Агутин » Граница
Знайти необхідні акорди

Агутин - Граница  табулатура

1:
1|------------------------------------------------------------------------1-
2|--------------1-----1-------------3-----3--1--1---4---1-4-3-3--3---3--3---
3|-0-0--3--2-2-----2-----3--3-3-3-3-----3-----------------------------------
4|--------------------------------------------------------------------------
5|--------------------------------------------------------------------------
6|--------------------------------------------------------------------------
   Забрали куда-то прямо из военкомата  Увезли в дали, автоматы в руки дали

1|----1---------3-----------------------------------------------------------
2|-3------4---4-----1--4--3---3-3---3-3-3-------------------1----3--4---3--4
3|------------------------------------------0--0-3--2----2------------------
4|--------------------------------------------------------------0------0----
5|--------------------------------------------------------------------------
6|--------------------------------------------------------------------------
   Ты прости, мама, что я был такой упрямый Но я служить должен...         
1|--------------------------
2|-3---4--2---3---4--3-4--3-
3|--------------------------
4|-0------------------------
5|--------------------------
6|--------------------------
   Так же как все!

Припев:
1|------------------------------------------------------------------------
2|------------------------------------------------------------------------
3|---------5-8--7---------8--7--5---------------5--8-7--------8----7--5---
4|-5-5-8------------4--4----------8---5---5---8----------4--4-----------8-
5|------------------------------------------------------------------------
6|------------------------------------------------------------------------      
   Паровоз умчится,  Прямо на границу,  Так что аты-баты,  Мы теперь солдаты!

2:      
Родные не знали, 
Что парня в армию забрали,
Но я в письме первом 
Напишу все непременно
Ты прости, мама, 
Что я был такой упрямый
Я служить должен... 
Так же как все!

Паровоз умчится
Прямо на границу
Так что аты-баты
Мы теперь солдаты!

Рэп-партия:
Паровоз умчится прямо на границу
Будут провожать папы, мамы, сестры, официальные лица
Девушка придет, скажет, всплакнет, спросит "Куда ж ты, милок ?"
А я буду служить в пограничных войсках
Я буду служить в пограничных войсках
Я вернусь домой в медалях, в орденах
Я буду ходить в фуражке, в сапогах
Так же как все в сапогах, в сапогах
Так же как все!

Паровоз умчится
Прямо на границу
Так что аты-баты
Мы теперь солдаты

3:
Ну а когда, мамка, 
Опять вернусь я на гражданку,
Ты поймешь сына, 
Настоящего мужчину!
Ты поверь, мама, 
Я не зря такой упрямый,
Ведь я служить должен... 
Так же как все!

Паровоз умчится
Прямо на границу
Так что аты-баты
Мы теперь солдаты

Паровоз умчится
Прямо на границу
Веселей ребяты
Мы теперь солдаты
Мы теперь солдаты
Мы теперь солдаты

-----------------------------
|  акорди, навчання, відео  |
|     http://akords.org     |
-----------------------------

 (голосів: 1)
   Інші пісні:
  • Граница (2 варіант)
  • Куда ушли цветы
  • Про любовь
  • Голый клоун (2 варіант)
  • Духовный Паровоз
  •  
    Шановний відвідувач, Ви зайшли на сайт як незареєстрований користувач. Ми рекомендуємо Вам реєструватися або зайти на сайт під своїм ім'ям.

    Додавання коментаря

    Ім'я:*
    E-Mail:*
    Коментар:
    Введіть два слова, показані на зображенні: *
     
      

    BLIBL-створити сайт безкоштовно