Зробити стартовою  |  Додати в вибране
 
Пошук по сайту:  
  логін: пароль:  
    Реєстрація на сайті   Нагадати пароль?    

Видавництво Симфонія | Книжкова фабрика

akords.org » А » Агата Кристи » Как на войне
Знайти необхідні акорди

Агата Кристи - Как на войне  табулатура

Am        G        C         E     Am
Ляг, отдохни, и послушай, что я скажу:
Я терпел, но сегодня я ухожу.
Я сказал: успокойся и рот закрой.
Вот и все, до свидания, черт с тобой.

Am G C E Am
Я на тебе, как на войне, а на войне, как на тебе.
Но я устал, окончен бой, беру портвейн, иду домой.
Окончен бой, зачах огонь и не осталось ничего.
А мы живем и нам с тобою повезло назло.

Боль, это боль, как ее ты ни назови.
Это страх, там где страх, места нет любви.
Я сказал: успокойся и рот закрой.
Вот и все, до свидания, черт с тобой.

Riff 1:

Am G C7 E Am G C7 E
e|-0------3-1-0--------------------0--------3-1-0--------0-4-5-|
B|---1-0--------3-1-3-0--0-1-0-------1-0-----------3-1-3-------|
G|2------0---------------------2----------0--------------------|
D|-------------------------------2-----------------------------|
A|-------------------------------------------------------------|
E|-------------------------------------------------------------|

Riff 2:

Am G C E
e|-------------------------------------------------------------|
B|-------------------------------------------------------------|
G|-------------------------------------------------------------|
D|------------------------------0-----0------0-2-4---2-4-2-0---|
A|-2---0-2---2-1-0-----0------0---0-2------4-------4---------4-|
E|---2-----2-------2-4----2-4----------------------------------|

Chord Progression:

Версия :
Am G Am E

Припев:
Am G C E

-----------------------------
|  акорди, навчання, відео  |
|     http://akords.org     |
-----------------------------

 (голосів: 0)
   Інші пісні:
  • Как на войне (2 варіант)
  • Комбат
  • На войне как на войне
  • На Войне как на Войне
  • Закрой за мной дверь, я ухожу
  •  
    Шановний відвідувач, Ви зайшли на сайт як незареєстрований користувач. Ми рекомендуємо Вам реєструватися або зайти на сайт під своїм ім'ям.

    Додавання коментаря

    Ім'я:*
    E-Mail:*
    Коментар:
    Введіть два слова, показані на зображенні: *
     
      

    BLIBL-створити сайт безкоштовно