Зробити стартовою  |  Додати в вибране
 
Пошук по сайту:  
  логін: пароль:  
    Реєстрація на сайті   Нагадати пароль?    

Видавництво Симфонія | Книжкова фабрика

akords.org » А » Агата Кристи » Вервольф
Знайти необхідні акорди

Агата Кристи - Вервольф  табулатура

e|-------0----------------0--------------0---------|
H|-0-2-3---3-2-3----0-2-3---3-2----0-2-3---3-1-0---| 2 раза
G|---------------2--------------2----------------2-|

e|---3-1-0-3-1----3-1-0-3-1----3-1-0-3-1-3-1-0-----|
H|-0-------------------------------------------3---|
G|--------------2------------0---------------------|

Бедному холодно зимой,
бедному - волком ты вой,
пустите бедного домой.

Сяду я к жаркому огню,
мяса съем, чаю попью
и вам бесплатно подарю

все небо, все звезды,
все камни, все сосны,
все, обо что кто-то точет зубы.

Хочется в теплую кровать,
хочется жить, а не ждать,
люди, пустите ночевать.

Волку так холодно зимой,
волку - хоть волком не вой,
пустите бедного домой.

Сяду я к жаркому огню,
мяса съем, чаю попью
и всем бесплатно подарю

все небо, все звезды,
все камни, все сосны,
все, обо что волки точат зубы.

Хочется в теплую кровать,
хочется жрать, а не ждать,
гады, пустите ночевать.

-----------------------------
|  акорди, навчання, відео  |
|     http://akords.org     |
-----------------------------

 (голосів: 0)
   Інші пісні:
  • Вервольф (2 вариант)
  • Хочется
  • Тайный знак
  • Холодно
  • Мечты
  •  
    Шановний відвідувач, Ви зайшли на сайт як незареєстрований користувач. Ми рекомендуємо Вам реєструватися або зайти на сайт під своїм ім'ям.

    Додавання коментаря

    Ім'я:*
    E-Mail:*
    Коментар:
    Введіть два слова, показані на зображенні: *
     
      

    BLIBL-створити сайт безкоштовно