Зробити стартовою  |  Додати в вибране
 
Пошук по сайту:  
  логін: пароль:  
    Реєстрація на сайті   Нагадати пароль?    

Видавництво Симфонія | Книжкова фабрика

akords.org » А » Агата Кристи » Ближе
Знайти необхідні акорди

Агата Кристи - Ближе  табулатура

Dm A#5- A# C#m Asus4 A
Dm A#5- A# C#m Asus4 A

Dm A#
e|-----------------------6---6-----|
b|-5---6-5---6---5---6---------6---|

C#m6 A
e|-----------------------5---5-----|
b|-5---6-5---6---5---6---------6---|

Dm A#
e|-----------------------6---6-----|
b|-5---6-5---6---5---6---------6---|

C#m6 A
e|-----------------------9---9-----|
b|-5---6-5---6---5---6---------6---|

Dm
e|-----------5---------------6-----|
b|-----5-6-------6-----5-6-------6-|
Зи - ма сбежала су -ет- ли -

C#m A
e|-----------4---------------5-----|
b|-----4-5-------5-----4-5-------5-|
- во хлопнув дверью

Dm
e|-----------5---------------6-----|
b|-----5-6-------6-----5-6-------6-|
И в душу ломится об -

C#m A
e|-----------4---------------5-----|
b|-----4-5-------5-----4-5-------5-|
- манщи - ца весна

Dm Eb
e|-----------6---------------6-----|
b|-----5-6-------6-----7-8-------8-|
Нам ос - тает - ся лишь оп -

Gm A
e|-----------6---------------5-----|
b|-----4-6-------6-----4-5-------5-|
- ла - кивать по-те - рю

Dm Bb
e|-----------5---------------6-----|
b|-----5-6-------6-----5-6-------6-|
И врать себе что это ле -

C#m A
e|-------5---6---5-------5---6---5-|
b|-----5---------------5-----------|
- то навсег- да

Dm C#m A
В дырявых душах так давно сквозняк и ветер,
Dm C#m A
Как в этой кухне с этой трещиной в земле,
Dm Eb Gm A
Я ничего не жду, не чувствую, не верю -
Dm Bb C#m A
Только себе, только тебе!

Dm A#
Я тебя ненавижу-вижу,
C#m6 A
Но ко мне ты все ближе, ближе.

Ты меня ненавидишь, но, но, но,
Но ко мне ты все ближе, все равно!
Я тебя ненавижу-вижу,
Но ко мне ты все ближе, ближе.
Ты меня ненавидишь, но, но, но,
Но ко мне ты все ближе, все равно!

Dm Bb
a|-8---8---x-x-x-7---7---5---5-----|
E|10--10---x-x-x-6---6---6---6-----|

C#m6 A
a|-7---7---x-x-x-5---5---4---4-----|
E|-9---9---x-x-x-5---5---5---5-----|

Dm Bb
d|---------------5---5---7---7-----|
a|-7---7---------------------------|
E|10--10---x-x-x-6---6---6---6-----|

C#m A
e|------------12-------------------|
b|---------x----14~~~--------------|
g|---------x14---------------------|
d|-6---6---------------------------|
a|-4---4---------------------------|

Когда придет зима и заморозит лужи
И тротуары поменяют каблуки,
Кто-то другой мне точно так не будет нужен,
Быть может я, быть может ты!

Я тебя ненавижу-вижу,
Но ко мне ты все ближе, ближе.
Ты меня ненавидишь, но, но, но,
Но ко мне ты все ближе, все равно!
Я тебя ненавижу-вижу,
Но ко мне ты все ближе, ближе.
Ты меня ненавидишь, но, но, но,
Но ко мне ты все ближе, все равно!

Dm A#5- A# C#m Asus4 A
Dm A#5- A# C#m Asus4 A

Я тебя ненавижу-вижу,
Но ко мне ты все ближе, ближе.
Ты меня ненавидишь, но, но, но,
Но ко мне ты все ближе, все равно!

Dm Bb
a|-8---8---x-x-x-7---7---5---5-----|
E|10--10---x-x-x-6---6---6---6-----|

C#m6 A
a|-7---7---x-x-x-5---5---4---4-----|
E|-9---9---x-x-x-5---5---5---5-----|

Dm Bb
a|-7---7---------------------------|
E|10--10---------------------------|
Ты меня ненавидишь но, но,

Но, но ко мне ты все ближе, все равно!

Dm A#
e|-----------------------6---6-----|
b|-5---6-5---6---5---6---------6---|

C#m6 A
e|-----------------------5---5-----|
b|-5---6-5---6---5---6---------6---|

Dm A#
e|-----------------------6---6-----|
b|-5---6-5---6---5---6---------6---|

C#m6 A
e|-----------------------9---9-----|
b|-5---6-5---6---5---6---------6---|

Dm Bb
a|-8---8---x-x-x-7---7---5---5-----|
E|10--10---x-x-x-6---6---6---6-----|

C#m6 A
a|-7---7---x-x-x-5---5---4---4-----|
E|-9---9---x-x-x-5---5---5---5-----|

Dm A#
e|-----------------------6---6-----|
b|-5---6-5---6---5---6---------6---|

C#m6 A
e|-----------------------9---9-----|
b|-5---6-5---6---5---6---------6---|

Dm Bb
a|-8---8---x-x-x-7---7---5---5-----|
E|10--10---x-x-x-6---6---6---6-----|

C#m6 A
a|-7---7---x-x-x-5---5---4---4-----|
E|-9---9---x-x-x-5---5---5---5-----|

Dm A#
e|-----------------------6---6-----|
b|-5---6-5---6---5---6---------6---|

C#m6 A
e|-----------------------9---9-----|
b|-5---6-5---6---5---6---------6---|

-----------------------------
|  акорди, навчання, відео  |
|     http://akords.org     |
-----------------------------

 (голосів: 0)
   Інші пісні:
  • Блюз
  • Северо-Запад (2 варіант)
  • Северо-Запад
  • Знакомым столичным
  • Знакомым столичным (2 варіант)
  •  
    Шановний відвідувач, Ви зайшли на сайт як незареєстрований користувач. Ми рекомендуємо Вам реєструватися або зайти на сайт під своїм ім'ям.

    Додавання коментаря

    Ім'я:*
    E-Mail:*
    Коментар:
    Введіть два слова, показані на зображенні: *
     
      

    BLIBL-створити сайт безкоштовно